» » »

Maroon 5, She Will Be Loved Tabs (ver.4)

Artists:  A B C D E F G H I J K L M N O P Q R S T U V W X Y Z # 

She Will Be Loved Tabs (ver.4)

Maroon 5 Tabs
 Rating:
4/5 (4 votes)
She Will Be Loved lessons Tabs too difficult? Try these video lessons and learn fast
                She Will Be Loved (Maroon 5)

I was motivated to correctly tab this song after searching endlessly for a version
that came remotely close to the actual way James plays it. This tab is a product
of several live performances, both televised and "in person". It definately isn't
100% accurate, but sounds the closest to "the real thing" I've heard.

Questions, comments, suggestions? Fell free to Email me.

Intro/Verse

e--------------------------------------|
b--------------------(7)---------------|
g----7-7-7-7----6-6-------(6)----------|
d----7-7-7-7----5-5--------------------|
a---------------7-7----(5)-----(5/7)---|
e-7----------5-------------------------|

Chorus ("I don't mind...")

e-5-5-5-5---5-5-5-5----5-5-5-5---5-5-5-5---|
b--5-5-5---5-5-5-5----5-5-5-5---5-5-5-5----|
g---------6----------6---------6-----------|
d------------------7-----------------------|
a------------------------------------------|
e------------------------------------------|

"She will be loved..."

e-5-5-5-5-5-5-5-5-5-5-5-5-5-5-5-5-5-5-5-5-5-5-5---|
b-5-5-5-5-5-5-5-5-5-5-5-5-5-5-5-5-5-5-5-5-5-5-5---|
g-------------6-6-6-6-6-6-6-6-6-6-6-6-6-6-6-6-6---|
d-------------------------7-7-7-7-7-7-------------|
a-------------------------------------------------|
e-------------------------------------------------|

Bridge ("I know where you hide...")

e-7---5-----------------------|
b-7---5-----------------------|
g-7---6-----------------------|
d-7---5-----------------------|
a-9---7--(x4)-----------------|
e-7---5-----------------------|

"...falls"

e--9---|
b-10---|
g--9---|
d-11---|
a--9---|
e--9---|

"Tap on my window..."

e--------------------------------------|
b--------------------(7)---------------|
g----7-7-7-7----6-6-------(6)----------|
d----7-7-7-7----5-5--------------------|
a---------------7-7----(5)-----(5/7)---|
e-7----------5-------------------------|

For the last chorus, James plays open chords in the progression of D, A, Bm, and G5.

(Intro)

Beauty queen of only eighteen
She had some trouble with herself
He was always there to help her
She always belonged to someone else

I drove for miles and miles
And wound up at your door
I've had you so many times but somehow
I want more

(Chorus) I don't mind spending everyday
Out on your corner in the pouring rain
Look for the girl with the broken smile
Ask her if she wants to stay awhile
And she will be loved
She will be loved

(Intro) Tap on my window knock on my door
I want to make you feel beautiful
I know I tend to get insecure
It doesn't matter anymore

It's not always rainbows and butterflies
It's compromise that moves us along
My heart is full and my door's always open
You can come anytime you want

(Chorus) I don't mind spending everyday
Out on your corner in the pouring rain
Look for the girl with the broken smile
Ask her if she wants to stay awhile
And she will be loved
She will be loved

(Bridge) I know where you hide
Alone in your car
Know all of the things that make you who you are
I know that goodbye means nothing at all
Comes back and begs me to catch her every time she falls
            
Submit corrections

comments powered by Disqus
↑ Back to top | Maroon 5 Tabs for She Will Be Loved. Lyrics for acoustic guitar and electric guitar. Tablatures and chords are parodies/interpretations of the original songs. You may use it for private study, scholarship, research or language learning purposes only