>
 >
She Will Be Love

She Will Be Love Guitar Tabs

Maroon 5 - She Will Be Love chords, tabs, tablatures, lyrics

Guitar lessons | Add/correct | Request | Top 50 tabs Artists:  A B C D E F G H I J K L M N O P Q R S T U V W X Y Z 0-9

She Will Be Love Guitar Tabs – Maroon 5

CD, Sheet music, Poster

Do you like She Will Be Love? Share with your friends now
Tabs
She Will Be Loved
Maroon 5 - 1.22.03. Acoustic

you use this tab on your site. Be sure to listen to the song while playing to make sure
you're playing it right.

At the request of DanMan1515, I will be adding lyrics shortly, hopefully within the next 
weeks once my exams start wrapping up.

Tab Notation:

x - Slap on strings with palm

Intro

e|--------|-----------------|-------------------|-----------------|-------------------|
B|--------|-----3-3-3-------|-----2---2-----2---|-----3-3-3-------|-----2---2-----2---|
G|--------|-----2-2-2-------|-----0---0--0------|-----2-2-2-------|-----0---0--0------|
D|--------|-----------x-----|--2----x------2----|-----------x-----|--2----x------2----|
A|----0---|--2--2-----x--0--|-------x-0---------|--2--2-----x--0--|-------x-0---------|
E|--------|-----------x-----|-------x-----------|-----------x-----|-------x-----------|

Verse 1 (Beauty queen...)


e|-----------------|-------------------|-----------------|-------------------|
B|-----3-3-3-------|-----2---2-----2---|-----3-3-3-------|-----2---2-----2---|
G|-----2-2-2-------|-----0---0--0------|-----2-2-2-------|-----0---0--0------|
D|-----------x-----|--2----x------2----|-----------x-----|--2----x------2----|
A|--2--------x--0--|-------x-0---------|--2--------x--0--|-------x-0---------|
E|-----------x-----|-------x-----------|-----------x-----|-------x-----------|


e|-----------------|-------------------|-----------------|-------------------|
B|-----3-3-3-------|-----2---2-----2---|-----3-3-3-------|-----2---2-----2---|
G|-----2-2-2-------|-----0---0--0------|-----2-2-2-------|-----0---0--0------|
D|-----------x-----|--2----x------2----|-----------x-----|--2----x------2----|
A|--2--------x--0--|-------x-0---------|--2--------x--0--|-------x-0---------|
E|-----------x-----|-------x-----------|-----------x-----|-------x-----------|

e|-----------------|-------------------|-----------------|------------0------|
B|-----3-3-3-------|-----2---2-----2---|-----3-3-3-------|-----2---2---------|
G|-----2-2-2-------|-----0---0--0------|-----2-2-2-------|-----0---0---------|
D|-----------x-----|--2----x------2----|-----------x-----|--2----x-----------|
A|--2--------x--0--|-------x-0---------|--2--------x--0--|-------x-0---------|
E|-----------x-----|-------x-----------|-----------x-----|-------x-----------|

e|-----------------|-------------------|-----------------|-------------------|
B|-----3-3-3-------|-----2---2-----2---|-----3-3-3-------|-----2---2-----2---|
G|-----2-2-2-------|-----0---0--0------|-----2-2-2-------|-----0---0--0------|
D|-----------x-----|--2----x------2----|-----------x-----|--2----x------2----|
A|--2--------x--0--|-------x-0---------|--2--------x--0--|-------x-0---------|
E|-----------x-----|-------x-----------|-----------x-----|-------x-----------|

Pre-chorus 1 (I don't mind...)

e|--0---0---------|-------------------|---------------|---------------------|
B|--3-----3-------|--------0----------|-----0---------|---------------2-----|
G|--2-------2-----|-----------2-------|--------2------|--------2-2-2--------|
D|--0---------0---|-----2-------2-----|---------------|--------2-2-2-----2--|
A|--0-------------|--0-------------0--|--2-------2-2--|--0---0-0-0-0--------|
E|--0-------------|-------------------|---------------|---------------------|


                                                              She

e|------0---------|-----------------|-----0-----|--3-3-3-3--3-3-3----|
B|----------------|------2--3-2-----|-----3-----|--3-3-3-3--3-3-3----|
G|----2----2------|------2--2-2-----|-----------|--0-0-0-0--0-0-0----|
D|-0---------0----|----2-2--2-------|-----------|--0-0-0-0--0-0-0-0--|
A|-------------0--|-0------------0--|-2---------|--2-2-2-2--2-2-2-0--|
E|----------------|-----------------|-----------|--3-3-3-3--3-3-3----|

Chorus 1 (will be loved...)

e|--0--0-0--0-0-0----|--------------------|----------------------|--3-3-3-3--3--|--2---|
B|--3--3-3--3-3-3----|--2-2-2-2--2-2-2----|--3-3-3-3--3-3--3-----|--3-3-3-3--3--|--3---|
G|--2--2-2--2-2-2----|--2-2-2-2--2-2-2----|--2-2-2-2--2-2--2-00--|--0-0-0-0--0--|--0---|
D|--0--0-0--0-0-0-0--|--2-2-2-2--2-2-2----|--x-x-x-x--x-x--x-00--|--0-0-0-0--0--|--0---|
A|--0--0-0--0-0-0-0--|--0-0-0-0--0-0-0-0--|--2-2-2-2--2-2--2-00--|--2-2-2-2--2--|--x---|
E|-------------------|--------------------|----------------------|--3-3-3-3--3--|--3---|

Verse 2 (Tap on my window...)

e|-----------------|-------------------|-----------------|------------0---|
B|-----3-3-3-------|-----2---2-----2---|-----3-3-3-------|-----2---2------|
G|-----2-2-2-------|-----0---0--0------|-----2-2-2-------|-----0---0------|
D|-----------x-----|--2----x------2----|-----------x-----|--2----x--------|
A|--2--------x--0--|-------x-0---------|--2--------x--0--|-------x-0------|
E|-----------x-----|-------x-----------|-----------x-----|-------x--------|

e|-----------------|-------------------|-----------------|------------0---|
B|-----3-3-3-------|-----2---2-----2---|-----3-3-3-------|-----2---2------|
G|-----2-2-2-------|-----0---0--0------|-----2-2-2-------|-----0---0------|
D|-----------x-----|--2----x------2----|-----------x-----|--2----x--------|
A|--2--------x--0--|-------x-0---------|--2--------x--0--|-------x-0------|
E|-----------x-----|-------x-----------|-----------x-----|-------x--------|

e|-------------------|-------------------|-------------------|------------0--|
B|-----3-3-----------|-----2---2-----2---|-----3-3-----------|-----2---2-----|
G|-----2-2-2-2-------|-----0---0--0------|-----2-2-2-2-------|-----0---0-----|
D|-------------x-----|--2----x------2----|-------------x-----|--2----x-------|
A|--2------2-2-x--0--|-------x-0---------|--2------2-2-x--0--|-------x-0-----|
E|-------------x-----|-------x-----------|-------------x-----|-------x-------|

e|-------------------|-------------------|-------------------|--------------------|
B|-----3-3-----------|-----2---2-----2---|-----3-3-----------|-----2-2-2--2-2-2-2-|
G|-----2-2-2-2-------|-----0---0--0------|-----2-2-2-2-------|-----0-0-0--0-0-0-0-|
D|-------------x-----|--2----x------2----|-------------x-----|--2--2-2-2--2-2-2-2-|
A|--2------2-2-x--0--|-------x-0---------|--2------2-2-x--0--|--------------------|
E|-------------x-----|-------x-----------|-------------x-----|--------------------|

Pre-chorus 2 (I don't mind...)

e|--0--0-0---0-0-0--|------------------|----------------|----------------|
B|--3--3-3---3-3-3--|--2--2-2---2-2-2--|--3--3---3-3-3--|--2--2---2-2-2--|
G|--2--2-2---2-2-2--|--2--2-2---2-2-2--|--2--2---2-2-2--|--2--2---2-2-2--|
D|--0--0-0---0-0-0--|--2--2-2---2-2-2--|--x--x---x-x-x--|--2--2---2-2-2--|
A|------------------|--0--0-0---0-0-0--|--2--2---2-2-2--|--0--0---0-0-0--|
E|------------------|------------------|----------------|----------------|


                                                                               She
e|--0--0-0---0-0-0--|------------------|----------------|--3-3-3-3--3-3--3-33--|
B|--3--3-3---3-3-3--|--2--2-2---2-2-2--|--3--3---3-3-3--|--3-3-3-3--3-3--3-33--|
G|--2--2-2---2-2-2--|--2--2-2---2-2-2--|--2--2---2-2-2--|--0-0-0-0--0-0--0-00--|
D|--0--0-0---0-0-0--|--2--2-2---2-2-2--|--x--x---x-x-x--|--0-0-0-0--0-0--0-00--|
A|------------------|--0--0-0---0-0-0--|--2--2---2-2-2--|--2-2-2-2--2-2--2-22--|
E|------------------|------------------|----------------|--3-3-3-2--3-3--3-33--|

Chorus 2 (will be loved...)


e|--0--0-0--0-0-0----|--------------------|----------------------|--3-3-3-3--3-3-3-3--|
B|--3--3-3--3-3-3----|--2-2-2-2--2-2-2----|--3-3-3-3--3-3--3-----|--3-3-3-3--3-3-3-3--|
G|--2--2-2--2-2-2----|--2-2-2-2--2-2-2----|--2-2-2-2--2-2--2-00--|--0-0-0-0--0-0-0-0--|
D|--0--0-0--0-0-0-0--|--2-2-2-2--2-2-2----|--x-x-x-x--x-x--x-00--|--0-0-0-0--0-0-0-0--|
A|--0--0-0--0-0-0-0--|--0-0-0-0--0-0-0-0--|--2-2-2-2--2-2--2-00--|--2-2-2-2--2-2-2-2--|
E|-------------------|--------------------|----------------------|--3-3-3-3--3-3-3-3--|

e|--0--0-0--0-0-0----|--------------------|----------------------|--3-3-3-3--3-3-3-3--|
B|--3--3-3--3-3-3----|--2-2-2-2--2-2-2----|--3-3-3-3--3-3--3-----|--3-3-3-3--3-3-3-3--|
G|--2--2-2--2-2-2----|--2-2-2-2--2-2-2----|--2-2-2-2--2-2--2-00--|--0-0-0-0--0-0-0-0--|
D|--0--0-0--0-0-0-0--|--2-2-2-2--2-2-2----|--x-x-x-x--x-x--x-00--|--0-0-0-0--0-0-0-0--|
A|--0--0-0--0-0-0-0--|--0-0-0-0--0-0-0-0--|--2-2-2-2--2-2--2-00--|--2-2-2-2--2-2-2-2--|
E|-------------------|--------------------|----------------------|--3-3-3-3--3-3-3-3--|

Bridge (I know where you hide...)

e|--0-0-0-0--0-0--0-00--|----------------------|--0-0-0-0--0-0--0-00--|--------------------|
B|--3-3-3-3--3-3--3-33--|--2-2--2-22--2-2-2-2--|--3-3-3-3--3-3--3-33--|--2-2-2-2--2-2-2-2--|
G|--2-2-2-2--2-2--2-22--|--2-2--2-22--2-2-2-2--|--2-2-2-2--2-2--2-22--|--2-2-2-2--2-2-2-2--|
D|--x-x-x-x--x-x--x-xx--|--2-2--2-22--2-2-2-2--|--x-x-x-x--x-x--x-xx--|--2-2-2-2--2-2-2-2--|
A|--2-2-2-2--2-2--2-22--|--0-0--0-00--0-0-0-0--|--2-2-2-2--2-2--2-22--|--0-0-0-0--0-0-0-0--|
E|----------------------|----------------------|----------------------|--------------------|

e|--0-0-0-0--0-0--0-00--|----------------------|--0-0-0-0--0-0--0-00--|--------------------|
B|--3-3-3-3--3-3--3-33--|--2-2--2-22--2-2-2-2--|--3-3-3-3--3-3--3-33--|--2-2-2-2--2-2-2-2--|
G|--2-2-2-2--2-2--2-22--|--2-2--2-22--2-2-2-2--|--2-2-2-2--2-2--2-22--|--2-2-2-2--2-2-2-2--|
D|--x-x-x-x--x-x--x-xx--|--2-2--2-22--2-2-2-2--|--x-x-x-x--x-x--x-xx--|--2-2-2-2--2-2-2-2--|
A|--2-2-2-2--2-2--2-22--|--0-0--0-00--0-0-0-0--|--2-2-2-2--2-2--2-22--|--0-0-0-0--0-0-0-0--|
E|----------------------|----------------------|----------------------|--------------------|

e|--3----|------|
B|--3----|------|
G|--0----|------|
D|--0----|------|
A|--2----|------|
E|--3----|------|

Verse 3 (Tap on my window...)

e|-----------------|-------------------|-----------------|----------|
B|-----3-3-3-------|-----2---2-----2---|-----3-3-3-------|--2-------|
G|-----2-2-2-------|-----0---0--0------|-----2-2-2-------|--0-------|
D|-----------x-----|--2----x------2----|-----------x-----|--2-------|
A|--2--------x--0--|-------x-0---------|--2--------x-----|--0-------|
E|-----------x-----|-------x-----------|-----------x-----|----------|

Final Pre-chorus (I don't mind...)





Comments


Popular Maroon 5 tabs & chords
Misery Bass Tabs
The Sun 2 Bass Tabs
Daylight 1 Chords
Give A Little More Chords
Payphone 6 Chords
Makes Me Wonder Intro Tabs
Secret Tabs
Wake Up Call 1 Tabs
I Wont Go Home Without You Ukulele
The Sun Ukulele


Song lyrics



↑ Back to top | Tablatures and chords are parodies/interpretations of the original songs. You may use it for private study, scholarship, research or language learning purposes only
© 2014 AZChords.com Contact us | Privacy policy | DMCA | Add/correct tabs | Request tabs | Top 50 tabs