» » »

Secret Bass tabs (ver.1)

Artists:  A B C D E F G H I J K L M N O P Q R S T U V W X Y Z # 

Secret Bass tabs (ver.1)

Maroon 5
Rating:
0/5 (0 votes)

Hard to play? Try these video lessons and learn fast.
                After two bars of the Guitar
Intro/Verse x

G|----------------------------------------------------------------|
D|----------------------------------------------------------------|
A|----------------------------------------------------------------|
E|-5---X-5---------2---X-2---------1---X-1---------0---X-0--------|

Chorus

G|----------------------------------------------------------------|
D|----------------------------------------------------------------|
A|----------------------------------------------------------------|
E|-5---X-5---------2---X-2---------1---X-1---------0---X-0--------|

G|----------------------------------------------------------------|
D|----------------------------------------------------------------|
A|----------------------------------------------------------------|
E|-8---8-8---------7---7-7---------6---6-6---------5---5-5--------|

Bridge

G|----------------------------------------------------------------|
D|----------------------------------------------------------------|
A|----------------------------------------------------------------|
E|-5---X-5---------2---X-2---------1---X-1---------0---X-0--------|

Listen to the song for better instruction of how it flows, feel free to edit.
            
Hard to play? Try these video lessons and learn fast. | Correct




comments powered by Disqus
↑ Back to top | Tablatures and chords are parodies/interpretations of the original songs. You may use it for private study, scholarship, research or language learning purposes only