» » »

Nothing Lasts Forever Tabs (ver.4)

Artists:  A B C D E F G H I J K L M N O P Q R S T U V W X Y Z # 

Nothing Lasts Forever Tabs (ver.4)

Maroon 5
Rating:
0/5 (0 votes)

Hard to play? Try these video lessons and learn fast.
                (Intro)
This is the guitar intro/verse to Nothing Lasts Forever.  Listen to the song for the 
pauses and rhythm.


|------------------------------------------------------------------||
|------------------------------------------------------------------||
|-------7-----7------7-------------6-----6-----6----------------11-||
|---7-----7-----7------7---7---7-----7-----7-----7---7-----9-------||
|-5---5-----5-----5------5---4---4-----4-----4-----4----10---10----||
|------------------------------------------------------------------||


|------------------------------------------------------------------||
|------------------------------------------------------------------||
|------9-------9----------------11------11-9------9----------------||
|-9-------9------9----9----9-------9---------9---------------------||
|---10------10-----10---10---10------10--------10------------------||
|------------------------------------------------------------------||
            
Hard to play? Try these video lessons and learn fast. | Correct




comments powered by Disqus
↑ Back to top | Tablatures and chords are parodies/interpretations of the original songs. You may use it for private study, scholarship, research or language learning purposes only