» » »

Must Get Out Tabs (ver.1)

Artists:  A B C D E F G H I J K L M N O P Q R S T U V W X Y Z # 

Must Get Out Tabs (ver.1)

Maroon 5
Rating:
0/5 (0 votes)

Tabs too difficult? Try these video lessons and learn fast.
                this is the most awesome song!!! maroon5 rules

intro/verses: (listen for timing)
e|-----------------------------------------------------------------|
B|-----------------------------------------------------------------|
G|-0------------------0--------------------------------------------|
D|-5---0---3---0---0--5--------------------------------------------|
A|-2---2---x---3---2--2--------------------------------------------|
D|-3---3---3---3---3--3--------------------------------------------|
   G  G/D  G/F G/C

play these chords in this sequence (Palm muted)  listen for timing


e|-15-----------------13------------------------------15-----------|
B|----------15------------------13-----12--------15----------------|
G|-----------------------------------------------------------------|
D|-----------------------------------------------------------------|
A|-----------------------------------------------------------------|
D|-----------------------------------------------------------------|
second guitar played over verse chords



CHORUS: played with some slight distortion

e|-3--3--3--3------------------------------------------------------|
B|-3--3--3--3------------------------------------------------------|
G|-0--2--0--0------------------------------------------------------|
D|-0--0--2--2------------------------------------------------------|
A|-2--x--2--3------------------------------------------------------|
D|-3--2--0---------------------------------------------------------|
   im liftin you upp........


interlude (2:19) after 2nd chorus

e|-2--3--3----2-3-1--------------------------------------|
B|-3--3--1----3-3-1--------------------------------------|
G|-2--0--0----2-0-2--------------------------------------|
D|----2--2------2-3--------------------------------------|
A|----2--3------2----------------------------------------|
D|----0---------0----------------------------------------|


(2:39)

e|-3--3--3--3------------------------------------------------------|
B|-3--3--3--3------------------------------------------------------|
G|-0--2--0--0------------------------------------------------------|
D|-0--0--2--2------------------------------------------------------|
A|-2--x--2--3------------------------------------------------------|
D|-3--2--0---------------------------------------------------------|
   strum each chord softly for this part...

e|-5b7--hold--r5--then---prebend-7-release to 3rd fret-------------|
B|-----------------------------------------------------------------|
G|-----------------------------------------------------------------|
D|-----------------------------------------------------------------|
A|-----------------------------------------------------------------|
D|-----------------------------------------------------------------|
second guitar played over above part (2nd time through)



CHORUS: play 4 times

e|-3--3--3--3------------------------------------------------------|
B|-3--3--3--3------------------------------------------------------|
G|-0--2--0--0------------------------------------------------------|
D|-0--0--2--2------------------------------------------------------|
A|-2--x--2--3------------------------------------------------------|
D|-3--2--0---------------------------------------------------------|
   im liftin you upp........

end on G

Peace
Jake Prahar
            
Tabs too difficult? Try these video lessons and learn fast.




comments powered by Disqus
↑ Back to top | Tablatures and chords are parodies/interpretations of the original songs. You may use it for private study, scholarship, research or language learning purposes only