>
 >
Misery

Misery Bass Tabs

Maroon 5 - Misery chords, tabs, tablatures, lyrics

Guitar lessons | Add/correct | Request | Top 50 tabs Artists:  A B C D E F G H I J K L M N O P Q R S T U V W X Y Z 0-9

Misery Bass Tabs – Maroon 5

CD, Sheet music, Poster

Do you like Misery? Share with your friends now
Bass TabsBass Tabs v2Bass Tabs v3ChordsChords v2Chords v3Chords v4Chords v5TabsTabs v2UkuleleUkulele v2
Awesome new song from a much awaited maroon 5 new album, the bass is amazing and thats
I did my best to get it perfect and tab it :)
you get the rythmn and stuff which is linked here:


(Use headphones if it's too quiet :)and ignore the bobbing, i do stupid things to keep
time XP )


I HAVE UPDATED THE TAB NOW, THINK I PRETTY MUCH HAVE IT PERFECT, THE BASS COVER IS STILL 
THERE FOR OUTLINE BUT IT'S NOWHERE NEAR PERFECT, JUST THE ROUGH RYTHMN :)

STANDARD TUNING

h=Hammer On
p=Pull Off
r=Rest
\=Slide Down

Basically it goes like this:

INTRO X1

G|------------------|
D|------------------|
A|-33--22--33--222--|
E|------------------|


VERSE 1 X2

G|---5p-------4p--|
D|----------------|
A|-3--------2-----|
E|----------------|


VERSE 2 X2

G|---5p-----------4p--|
D|--------------------|
A|-3---------2-22-----|
E|--------12\---------|

PRE CHORUS

G|--------------------------|
D|--------------------------|
A|-3-3-3~-----2-2-2----/12\-|
E|--------------------------|


CHORUS 1 X2

G|-----------------------------------|
D|------5h7-7------------3h5-5-55----|
A|-7-77-------------5-55-------------|
E|-----------------------------------|

G|--------------------------------------|
D|------5h7-7------------3h5-5-7-5------|
A|-7-77-------------5-55-----------7-5--|
E|--------------------------------------|


CHORUS 2  X2

G|---------------9h7--------------------------|
D|------5h7-77-7----9-7------3h5-5-5-7h5------|
A|-7-77-----------------5-55-------------7-5--|
E|--------------------------------------------|


POST CHORUS X1


G|----------4p-----|
D|-----------------|
A|-3r-----2----2---|
E|-----------------|

VERSE 1 X1

G|---5p-------4p--|
D|----------------|
A|-3--------2-----|
E|----------------|

VERSE 2 X2

G|---5p-----------4p--|
D|--------------------|
A|-3---------2-22-----|
E|--------12\---------|


PRE CHORUS

G|--------------------------|
D|--------------------------|
A|-3-3-3~-----2-2-2----/12\-|
E|--------------------------|


CHORUS 1 X2

G|-----------------------------------|
D|------5h7-7------------3h5-5-55----|
A|-7-77-------------5-55-------------|
E|-----------------------------------|

G|--------------------------------------|
D|------5h7-7------------3h5-5-7-5------|
A|-7-77-------------5-55-----------7-5--|
E|--------------------------------------|


CHORUS 2  X2

G|---------------9h7--------------------------|
D|------5h7-77-7----9-7------3h5-5-5-7h5------|
A|-7-77-----------------5-55-------------7-5--|
E|--------------------------------------------|


BRIDGE X1

G|-----4-----2--------------------4-----2-------------4---|
D|---4-----2-------4------------4-----2-------------4-----|
A|-2-----0-------2------------2-----0------3-3-3--2-------|
E|-------------2-----3-3-3--------------------------------|

REST THEN

CHORUS 2  X2

G|---------------9h7--------------------------|
D|------5h7-77-7----9-7------3h5-5-5-7h5------|
A|-7-77-----------------5-55-------------7-5--|
E|--------------------------------------------|

Enjoy :)





Comments


Popular Maroon 5 tabs & chords
Out Of Goodbyes Bass Tabs
This Love 3 Bass Tabs
Better That We Break 3 Chords
Daylight 2 Chords
I Can't Lie Chords
Sunday Morning 3 Chords
This Love 9 Chords
I Wont Go Home Without You Tabs
Shiver 1 Tabs
Beautiful Goodbye Ukulele


Song lyrics



↑ Back to top | Tablatures and chords are parodies/interpretations of the original songs. You may use it for private study, scholarship, research or language learning purposes only
© 2014 AZChords.com Contact us | Privacy policy | DMCA | Add/correct tabs | Request tabs | Top 50 tabs