>
 >
If I Never See Your Face Again

If I Never See Your Face Again Guitar Tabs

Maroon 5 - If I Never See Your Face Again chords, tabs, tablatures, lyrics

Guitar lessons | Add/correct | Request | Top 50 tabs Artists:  A B C D E F G H I J K L M N O P Q R S T U V W X Y Z 0-9

If I Never See Your Face Again Guitar Tabs – Maroon 5

CD, Sheet music, Poster

Do you like If I Never See Your Face Again? Share with your friends now
Tabs
-------------------------------------------------------------------------------
-------------------------------------------------------------------------------

Guitar 1- Intro (Clean, Reverb)        x2
e|--------------------------------------|
B|-7-------11-11------7---7-9--X-9-\-6--|
G|-8-------11-11------8---8-10-X-10\-6-o|
D|-------------------------------------o|
A|--------------------------------------|
E|--------------------------------------|

(0:09)
Guitar 1- Chorus (Clean, Reverb)       x2
e|--------------------------------------|
B|-7-------11-11------7---7-9--X-9-\-6--|
G|-8-------11-11------8---8-10-X-10\-6-o|
D|-------------------------------------o|
A|--------------------------------------|
E|--------------------------------------|
Guitar 2- Chorus (Light Distortion)    x2
e|--------------------------------------|
B|--------------------------------------|
G|-------------------------------------o|
D|-6---------4--XX-4/6---X-6---X-8--9--o|
A|-6---------4--XX-4/6---X-6---X-8--9---|
E|-4-----2-2-2--XX-2/4---X-4---X-6--7---|

(0:18)
Verse- Guitar 1 (Clean)                      x4
e|--------------------------------------------|
B|-12--12-----12--12-----12--12-------12-12~~-|
G|-11--11-----11--11-----11--11-------11-11~~o|
D|-------------------------------------------o|
A|--------------------------------------------|
E|--------------------------------------------|

(0:37)
Verse Part 2- Guitar 2 (Light Dist., Reverb) x2
e|--------------------------------------------|
B|--------------------------------------------|
G|o------------------------------------4------|
D|o-6-6----6-6----6-6---------4----4h6--------|
A|-----------------------4h6------------------|
E|--------------------------------------------|

e|--------------------------------------------|
B|--------------------------------------------|
G|--------------------------6-6----5-5----4--o|
D|-6-6----6-6----6-6-------------------------o|
A|--------------------------------------------|
E|--------------------------------------------|

(0:55)
Guitar 1- Chorus 2 (Clean, Reverb)     x4
e|--------------------------------------|
B|-7-------11-11------7---7-9--X-9-\-6--|
G|-8-------11-11------8---8-10-X-10\-6-o|
D|-------------------------------------o|
A|--------------------------------------|
E|--------------------------------------|
Guitar 2- Chorus 2(Light Distortion)   x3
e|--------------------------------------|
B|--------------------------------------|
G|-------------------------------------o|
D|-6---------4--XX-4/6---X-6---X-8--9--o|
A|-6---------4--XX-4/6---X-6---X-8--9---|
E|-4-----2-2-2--XX-2/4---X-4---X-6--7---|

(1:08)
Guitar 2- Last Measure of Chorus 2
e|--------------------------------------|
B|--------------------------------------|
G|--------------------------------------|
D|-4---------4--------11\--5------------|
A|-4---------4--------11\--5------------|
E|-2---------2--------9-\--3------------|

(1:12)
Guitar 1- Bridge (Clean, Reverb)
e|--------------------------------------|
B|-7-------11-11------7---7-9--X-9-\-6--|
G|-8-------11-11------8---8-10-X-10\-6-o|
D|-------------------------------------o|
A|--------------------------------------|
E|--------------------------------------|
Guitar 2- Bridge (Light Distortion)
e|--------------------------------------|
B|--------------------------------------|
G|-------------------------------------o|
D|-6---------4--XX-4/6---X-6---X-8--9--o|
A|-6---------4--XX-4/6---X-6---X-8--9---|
E|-4-----2-2-2--XX-2/4---X-4---X-6--7---|

(1:17)
Verse 2- Guitar 1 (Clean)                    x4
e|--------------------------------------------|
B|-12--12-----12--12-----12--12-------12-12~~-|
G|-11--11-----11--11-----11--11-------11-11~~o|
D|-------------------------------------------o|
A|--------------------------------------------|
E|--------------------------------------------|

(1:35)
Verse 2 Part 2- Guitar 2 (Light Dist, Reverb)x2
e|--------------------------------------------|
B|--------------------------------------------|
G|o------------------------------------4------|
D|o-6-6----6-6----6-6---------4----4h6--------|
A|-----------------------4h6------------------|
E|--------------------------------------------|

e|--------------------------------------------|
B|--------------------------------------------|
G|--------------------------6-6----5-5----4--o|
D|-6-6----6-6----6-6-------------------------o|
A|--------------------------------------------|
E|--------------------------------------------|

(1:53)
Guitar 1- Chorus 3 (Clean, Reverb)     x4
e|--------------------------------------|
B|-7-------11-11------7---7-9--X-9-\-6--|
G|-8-------11-11------8---8-10-X-10\-6-o|
D|-------------------------------------o|
A|--------------------------------------|
E|--------------------------------------|
Guitar 2- Chorus 3(Light Distortion)   x3
e|--------------------------------------|
B|--------------------------------------|
G|-------------------------------------o|
D|-6---------4--XX-4/6---X-6---X-8--9--o|
A|-6---------4--XX-4/6---X-6---X-8--9---|
E|-4-----2-2-2--XX-2/4---X-4---X-6--7---|

(2:07)
Guitar 2- Last Measure of Chorus 3
e|--------------------------------------|
B|--------------------------------------|
G|--------------------------------------|
D|-4---------4--------11\--5------------|
A|-4---------4--------11\--5------------|
E|-2---------2--------9----3------------|

(2:11)
Guitar 2- Pre-Breakdown (Light Distortion)
e|--------------------|
B|--------------------|
G|--------------------|
D|-4---------4--------|
A|-4---------4--------|
E|-2---------2--------|

(2:14) Guitar 1- Breakdown (Clean) x2
e|----------------------------------|
B|-7-------------7-------14---------|
G|-6-------------6-------13--------o|
D|-4-------------4-------11--------o|
A|-4-------------4-------11---------|
E|----------------------------------|

(2:32)
Guitar 1- Breakdown (Clean, Reverb)    x4
e|--------------------------------------|
B|-7-------11-11------7---7-9--X-9-\-6--|
G|-8-------11-11------8---8-10-X-10\-6-o|
D|-------------------------------------o|
A|--------------------------------------|
E|--------------------------------------|

(2:50)
Guitar 1- Chorus 4 (Clean, Reverb)     x4
e|--------------------------------------|
B|-7-------11-11------7---7-9--X-9-\-6--|
G|-8-------11-11------8---8-10-X-10\-6-o|
D|-------------------------------------o|
A|--------------------------------------|
E|--------------------------------------|
Guitar 2- Chorus 4(Light Distortion)   x3
e|--------------------------------------|
B|--------------------------------------|
G|-------------------------------------o|
D|-6---------4--XX-4/6---X-6---X-8--9--o|
A|-6---------4--XX-4/6---X-6---X-8--9---|
E|-4-----2-2-2--XX-2/4---X-4---X-6--7---|

(3:03)
Guitar 2- Last Measure of Chorus 4
e|--------------------------------------|
B|--------------------------------------|
G|--------------------------------------|
D|-4---------4--------11\--5------------|
A|-4---------4--------11\--5------------|
E|-2---------2--------9----3------------|

(3:08) Outro- Guitar 2                 x2
e|--------------------------------------|
B|--------------------------------------|
G|-------------------------------------o|
D|-6---XX-6--XXX--XXX-6---6---8\4------o|
A|-6---XX-6--XXX--XXX-6---6---8\4-------|
E|-4---XX-4--XXX--XXX-4---4---6\2-------|


So there you have it.  I'm still a bit unsure of the chords in the breakdown at (2:14), 
Enjoy.





Comments


Popular Maroon 5 tabs & chords
Back At Your Door Chords
Daylight 4 Chords
If I Fell Chords
One More Night 3 Chords
She Will Be Loved 4 Chords
Through With You Chords
Through With You Tabs
Way I Was Intro Tabs
If I Aint Got Ukulele
The Air That I Breathe Ukulele


Song lyrics



↑ Back to top | Tablatures and chords are parodies/interpretations of the original songs. You may use it for private study, scholarship, research or language learning purposes only
© 2014 AZChords.com Contact us | Privacy policy | DMCA | Add/correct tabs | Request tabs | Top 50 tabs