» » »

Harder To Breathe Tabs (ver.2)

Artists:  A B C D E F G H I J K L M N O P Q R S T U V W X Y Z # 

Harder To Breathe Tabs (ver.2)

Maroon 5
Rating:
2/5 (3 votes)

Hard to play? Try these video lessons and learn fast.
                Band: Maroon 5

Here's Harder To Breathe Acoustic. It's only the chorus and the bridge that's different

Verse:
e|---------------------------------------------------------------|
B|---------------------------------------------------------------|
G|---------------------------------------------------------------|
D|----------------------------2-4---------------------------2-4--|
A|2-4---2-4---2-4---2-4---2-4------2-4---2-4---2-4--4---2-4------|
E|----------4-----------4--------------------4--------4----------|
How dare you say that my behavior is unacceptable
So condescending unnecessarily critical
I have the tendency of getting very physical
So watch your step cause if I do you'll need a miracle


                                                   C#m
e|--------------------------------------------------4------------|
B|--------------------------------------------------5------------|
G|--------------------------------------------------6------------|
D|----------------------------2-4-------------------6------------|
A|2-4---2-4---2-4---2-4---2-4------2-4---2-4---2-4--4------------|
E|----------4-----------4--------------------4-------------------|
You drain me dry and make me wonder why I'm even here
This Double Vision I was seeing is finally clear
You want to stay but you know very well I want you gone
Not fit to funkin' tread the ground that I'm walking on


Chorus:

These are the chords used in chorus
 C#m   G#  B   F#
e|4----4---2----2------------------------------------------------|
B|5----4---4----2------------------------------------------------|
G|6----5---4----3------(X3)--------------------------------------|
D|6----6---4----4------------------------------------------------|
A|4----6---2----4------------------------------------------------|
E|-----4--------2------------------------------------------------|
When it gets cold outside and you got nobody to love
You'll understand what I mean when I say
There's no way we're gonna give up
And like a little girl cries in the face of a monster that lives in her dreams


e|4--------------------------------------------------------------|
B|5--------------------------------------------------------------|
G|6---BREAK---(X2)-----------------------------------------------|
D|6--------------------------------------------------------------|
A|4--------------------------------------------------------------|
E|---------------------------------------------------------------|
Is there anyone out there cause it's getting harder and harder to breathe
Is there anyone out there cause it's getting harder and harder to breathe

Verse:
What you are doing is screwing things up inside my head
You should know better you never listened to what I've said
Clutching your pillow and writhing in a naked sweat
Hoping somebody someday will do you like I did

Chorus: (This time play the chords from the chorus 4 times, so theres only one break)
When it gets cold outside and you got nobody to love
You'll understand what I mean when I say
There's no way we're gonna give up
And like a little girl cries in the face of a monster that lives in her dreams
Is there anyone out there cause it's getting harder and harder to breathe
Is there anyone out there cause it's getting harder and harder to breathe

Bridge:
(Just play the C#m chord all the time!)
e|4-4---4-4---x-4-----------------------------------------------|
B|5-5---5-5---x-5-----------------------------------------------|
G|6-6---6-6---x-6-----------------------------------------------|
D|6-6---6-6---x-6-----------------------------------------------|
A|4-4---4-4---x-4-----------------------------------------------|
E|--------------------------------------------------------------|
Does it kill
Does it burn
Is it painful to learn
That it's me that has all the control

Does it thrill
Does it sting
When you feel what I bring
And you wish that you had me to hold


Chorus:
When it gets cold outside and you got nobody to love
You'll understand what I mean when I say
There's no way we're gonna give up
And like a little girl cries in the face of a monster that lives in her dreams
Is there anyone out there cause it's getting harder and harder to breathe
Is there anyone out there cause it's getting harder and harder to breathe
Is there anyone out there cause its gettin harder and harder to breathe

ENJOY PLAYING IT :D
            
Hard to play? Try these video lessons and learn fast. | Correct




comments powered by Disqus
↑ Back to top | Tablatures and chords are parodies/interpretations of the original songs. You may use it for private study, scholarship, research or language learning purposes only