» » »

Maroon 5, Harder To Breathe Bass tabs (ver.5)

Artists:  A B C D E F G H I J K L M N O P Q R S T U V W X Y Z # 

Harder To Breathe Bass tabs (ver.5)

Maroon 5 Tabs
 Rating:
4/5 (4 votes)
Harder To Breathe lessons Tabs too difficult? Try these video lessons and learn fast
1
                Harder To Breathe – Marron 5
I'm pretty certain this is right, so enjoy!:)

Verse:
How dare you say that my behavior is unacceptable, So condescending unnecessarily
critical, I have the tendency of getting very physical, So watch your step cause if I do
you'll need a miracle, You drain me dry and make me wonder why I'm even here, This 
double vision I was seeing is finally clear, You want to stay but you know very well I want you
gone, Not fit to f****** tread the ground that I'm walking on

|-----------------------------------------------------|
|--------------------------------------------24-------|     x3
|-2-4xxxxxxxxx-2-4----2-4-xxxxxxx-2-4---24------------|
|------------------4------------------4---------------|

Chorus:
“When it gets cold outside and you've got nobody to love, I'd understand what you mean
when you say there's no way we're gonna give up, yeah yeah yeah yeah, like a little girl
cries in the face of the monster that lives in her dreams, oohh ohh'
|------------------------------------|
|------------------------------------|   x3
|---4--4--------2--2-----------------|
|----------2-2--------4-4-2-4b-2-----|

'Is anyone out there coz its getting harder and harder to breathe, is there anyone out
there coz its getting harder and harder to breathe.'
|--------------------------------------------------------------|
|--------------------------------------------------------------|
|--4-4-4-4-4\2-2\4--/4-4-7\4-4-4-4-2-2-2-2-2-1-2\4-------------|
|--------------------------------------------------------------|

Verse:
What are doing screwing things up inside my head, you should know better you never
listened to a word I said, clutching your pillow and writhing in a naked sweat, hoping some
one someday will do ya like I diiiddd.

Chorus again:

Bridge:
Does it kill, does it burn, is it painful to learn, that its me that has all the
control,does it thrill, does it sting, when you feel what I bring, and you wish that you 
had me
to hold a-yeah, yeah, yeah,

|---------------------------------------------------|
|---------------------------------------------------|
|-4-4-4-4-4-4-4-4--4-2-----4-4-4-4-4-4567-----------|
|----------------------4-2--------------------------|
Chrous:

Endng:
(4x hits of the snair drum, then...)

|----------|
|----------|
|--2-4-----|
|----------|
            
Submit corrections

comments powered by Disqus
↑ Back to top | Maroon 5 Bass for Harder To Breathe. Lyrics for acoustic guitar and electric guitar. 1 Tablatures and chords are parodies/interpretations of the original songs. You may use it for private study, scholarship, research or language learning purposes only