» » »

Maroon 5, Harder To Breathe Tabs (ver.3)

Artists:  A B C D E F G H I J K L M N O P Q R S T U V W X Y Z # 

Harder To Breathe Tabs (ver.3)

Maroon 5 Tabs
Rating:
3/5 (2 votes)
Hard to play? Try these video lessons and learn fast.
                Maroon 5 - Harder To Breath


INTRO/1st Verse:
e|-----------|-----------|-----------|----------------|
b|-----------|-----------|-----------|----------------|
G|-----------|-----------|-----------|----------------|
D|-----------|-----------|-----------|------------2-4-|
A|-2-4-------|-2-4-------|-2-4-------|-2-4----2-4-----|
E|-----------|-------4---|-----------|------4---------|

e|-----------|-----------|-----------|----------------|
b|-----------|-----------|-----------|----------------|
G|-----------|-----------|-----------|-!--------------|
D|-----------|-----------|-----------|------------2-4-|
A|-2-4-------|-2-4-------|-2-4-------|-4------2-4-----|
E|-----------|-------4---|-----------|------4---------|

VERSE: 
Repeat the 1st verse, but then play muted notes in between the hits.
There is a break at the last bar before the Chorus; only play the first note there.
If you want, you can produce the harmonics by letting your pinky rest on the
E-string above the 4th fret, while you mute the other strings with that pinky
and your index finger.

CHORUS: one guitar seems to play loud power chords, the other (softer) plays
chords together with the keys. I combined them. Play the chords in the rhytm.
e|-4---(4)---------|-2--(2)------------|
b|-5----4--4---4---|-3---2--2----------|
G|*6----5--5---5---|-4---3--3---------*|
D|*6----6--6---6---|-4---4--4---------*|
A|-4----6--6---6---|-2---4--4----------|
E|------4--4---4---|-----2--2--0-2-0-2~|
                                           (is there anyone out there...)
e|-4---(4)---------|-2--(2)------------|---------------|---------------|
b|-5----4--4---4---|-3---2--2----------|---------------|---------------|
G|-6----5--5---5---|-4---3--3----------|*--------------|--------------*|
D|-6----6--6---6---|-4---4--4----------|*--------------|--------------*|
A|-4----6--6---6---|-2---4--4----------|-4-------------|---------------|
E|------4--4---4---|-----2--2--0-3-2-0-|---------------|---------------|

VERSE: repeat Verse 1x

CHORUS: the same as the 1st chorus, only now play this at "is there anyone out there...":

e|-4----4--4---4---|-4---4--4----------|---------------|---------------|
b|-5----5--5---5---|-4---4--4----------|---------------|---------------|
G|-6----6--6---6---|-5---5--5----------|---------------|---------------|
D|-6----6--6---6---|-6---6--6----------|---------------|---------------|
A|-4----4--4---4---|-6---6--6----------|-4-------------|---------------|
E|-----------------|-4---4--4--0-3-2-0-|---------------|---------------|

BRIDGE:
During the Bridge one guitar plays a solo, while another guitar and keys play something like these chords:

  C#m    C#mb5   C#madd11 C#sus2add11 C#m   C#sus2add11 C#sus2b5 C#sus2add11
e|-4----|-------|-4------|-4--------|-4----|-4---------|-4------|-4------|
b|-5----|-5-----|-5------|-4--------|-5----|-4---------|-4------|-4------|
G|*6----|-6-----|-6------|-6--------|-6----|-6---------|-6------|-6-----*|
D|*6----|-5-----|-4------|-4--------|-6----|-4---------|-5------|-4-----*|
A|-4----|-4-----|-4------|-4--------|-4----|-4---------|-4------|-4------|
E|------|-------|--------|----------|------|-----------|--------|--------|

CHORUS: repeat the 2nd Chorus, and add this as ending:

e|-----------|-----------|--------||
b|-----------|-----------|--------||
G|-----------|-----------|--------||
D|-----------|-----------|--------||
A|-4---------|-----------|-2-4----||
E|-----------|-----------|--------||
            

comments powered by Disqus
↑ Back to top | Maroon 5 Tabs for Harder To Breathe. Lyrics for acoustic guitar and electric guitar. Tablatures and chords are parodies/interpretations of the original songs. You may use it for private study, scholarship, research or language learning purposes only