>
 >
Harder To Breath 2

Harder To Breath 2 Guitar Tabs

Maroon 5 - Harder To Breath 2 chords, tabs, tablatures, lyrics

Guitar lessons | Add/correct | Request | Top 50 tabs Artists:  A B C D E F G H I J K L M N O P Q R S T U V W X Y Z 0-9

Harder To Breath 2 Guitar Tabs – Maroon 5

CD, Sheet music, Poster

Do you like Harder To Breath 2? Share with your friends now
TabsTabs v2Tabs v3
Tuning: E A D G B E


 Verse:
 E|-------------------------------------------
 B|-------------------------------------------
 G|-------------------------------------------
 D|---------------------------2-4-------------
 A|--2-42-4----2-4-2-4---2-4-----------------
 E|----------4----------4---------------------

 E|-------------------------------------------
 B|-------------------------------------------
 G|-------------------------------------------
 D|---------------------------2-4-------------
 A|--2-42-4----2-4-2-4---2-4-----------------
 E|----------4----------4---------------------

 E|-------------------------------------------
 B|-------------------------------------------
 G|-------------------------------------------
 D|---------------------------2-4-------------
 A|--2-42-4----2-4-2-4---2-4-----------------
 E|----------4----------4---------------------

 E|-------------------------------------------
 B|-------------------------------------------
 G|-------------------------------------------
 D|---------------------------2-4-------------
 A|--2-42-4----2-4-2-4---2-4-----------------
 E|----------4----------4---------------------

 Chorus:
 E|----------------------------------------
 B|----------------------------------------
 G|---66666--------44444-------------------
 D|---66666-66666--44444-44444-------------
 A|---44444-66666--22222-44444-------------
 E|---------44444--------22222-------------





Comments


Popular Maroon 5 tabs & chords
Not Coming Home Bass Tabs
Wont Go Home Without You Bass Tabs
Misery 5 Chords
Moves Like Jagger Chords
Nothing Lasts Forever 1 Chords
Payphone 6 Chords
Harder To Breathe 2 Tabs
Nothing Lasts Forever Intro Tabs
This Love 3 Tabs
Christmas Cheer Ukulele


Song lyrics



↑ Back to top | Tablatures and chords are parodies/interpretations of the original songs. You may use it for private study, scholarship, research or language learning purposes only
© 2014 AZChords.com Contact us | Privacy policy | DMCA | Add/correct tabs | Request tabs | Top 50 tabs