» » »

Harder To Breath Tabs (ver.3)

Artists:  A B C D E F G H I J K L M N O P Q R S T U V W X Y Z # 

Harder To Breath Tabs (ver.3)

Maroon 5
Rating:
0/5 (0 votes)

Hard to play? Try these video lessons and learn fast.
                Tuning: E A D G B E


 Verse:
 E|-------------------------------------------
 B|-------------------------------------------
 G|-------------------------------------------
 D|---------------------------2-4-------------
 A|--2-4—2-4----2-4-2-4---2-4-----------------
 E|----------4----------4---------------------

 E|-------------------------------------------
 B|-------------------------------------------
 G|-------------------------------------------
 D|---------------------------2-4-------------
 A|--2-4—2-4----2-4-2-4---2-4-----------------
 E|----------4----------4---------------------

 E|-------------------------------------------
 B|-------------------------------------------
 G|-------------------------------------------
 D|---------------------------2-4-------------
 A|--2-4—2-4----2-4-2-4---2-4-----------------
 E|----------4----------4---------------------

 E|-------------------------------------------
 B|-------------------------------------------
 G|-------------------------------------------
 D|---------------------------2-4-------------
 A|--2-4—2-4----2-4-2-4---2-4-----------------
 E|----------4----------4---------------------

 Chorus:
 E|----------------------------------------
 B|----------------------------------------
 G|---66666--------44444-------------------
 D|---66666-66666--44444-44444-------------
 A|---44444-66666--22222-44444-------------
 E|---------44444--------22222-------------
            
Hard to play? Try these video lessons and learn fast. | Correct




comments powered by Disqus
↑ Back to top | Tablatures and chords are parodies/interpretations of the original songs. You may use it for private study, scholarship, research or language learning purposes only