» » »

Harder To Breath Tabs (ver.2)

Artists:  A B C D E F G H I J K L M N O P Q R S T U V W X Y Z # 

Harder To Breath Tabs (ver.2)

Maroon 5
Rating:
0/5 (0 votes)

Hard to play? Try these video lessons and learn fast.
                Tuning: Eb Ab Db Gb Bb eb

 Verse:
 eb|-------------------------------------------
 Bb|-------------------------------------------
 Gb|-------------------------------------------
 Db|------------------------------------3-5----
 Ab|--3-5---3-5---0---3-5---3-5---0-3-5--------
 Eb|-------------------------------------------

 eb|-------------------------------------------
 Bb|-------------------------------------------
 Gb|-------------------------------------------
 Db|------------------------------------3-5----
 Ab|--3-5---3-5---0---3-5-----5---0-3-5--------
 Eb|-------------------------------------------

 eb|-------------------------------------------------------
 Bb|-------------------------------------------------------
 Gb|-------------------------------------------------------
 Db|------XXXXXX-----XX---XXX-----XXXXXX-----X-------3-5---
 Ab|--3-5-XXXXXX-3-5-XX-0-XXX-3-5-XXXXXX-3-5-X-0-3-5-------
 Eb|------XXXXXX-----XX---XXX-----XXXXXX-----X-------------

 eb|----------------------------------------
 Bb|----------------------------------------
 Gb|----------------------------------------
 Db|------XXXXXX-----XX---XXX-----XXXXXX----
 Ab|--3-5-XXXXXX-3-5-XX-0-XXX-3-5-XXXXXX-5--
 Eb|------XXXXXX-----XX---XXX-----XXXXXX----

 Chorus:
 eb|--------------------------------------------------------------
 Bb|--------------------------------------------------------------
 Gb|-----------7--7-7-7----------------5--5-5-5-------------------
 Db|-----------7--7-7-7--7--7--7--7-7--5--5-5-5--5--5--3-5-3-5-3--
 Ab|-----------5--5-5-5--7--7--7--7-7--3--3-3-3--5--5--3-5-3-5-3--
 Eb|--//14\\---5--5-5-5--5--5--5--5-5--3--3-3-3--3--3--1-3-1-3-1--
            
Hard to play? Try these video lessons and learn fast. | Correct




comments powered by Disqus
↑ Back to top | Tablatures and chords are parodies/interpretations of the original songs. You may use it for private study, scholarship, research or language learning purposes only