» » »

Maroon 5, Figure It Out Tabs (ver.1)

Artists:  A B C D E F G H I J K L M N O P Q R S T U V W X Y Z # 

Figure It Out Tabs (ver.1)

Maroon 5 Tabs
 Rating:
4.4/5 (7 votes)
Figure It Out lessons Tabs too difficult? Try these video lessons and learn fast
                -------------------------------------------------------------------------------
-------------------------------------------------------------------------------

Tuning: Standard (E)(A)(D)(G)(B)(E)

Verse:
(Only Drums)

Chorus:
{We could spend some time together}
e|-------------9-9-9-9-----------------------2-2-2-2-------------------------|
B|-------------8-8-8-8-----------------------1-1-1-1-------------------------|
G|-----------------------x2--------------------------------------------------|
D|-2~-4~-5~---------------------7~-9~-10~----------------2~-4~-5~------------|
A|-2~-4~-5~---------------------7~-9~-10~----------------2~-4~-5~------------|
E|-0~-2~-3~---------------------5~-7~-8~-----------------0~-2~-3~------------|

Bridge:
e|----------3-3-3-0----------7-5-4-5-4-0--x4 (Tremolo bar down last time)---|
B|------0-3--------------0-3-------------------------------------------------|
G|---------------------------------------------------------------------------|
D|-2------------------2------------------------------------------------------|
A|-2------------------2------------------------------------------------------|
E|-0------------------0------------------------------------------------------|


I'm happy you came to me first
Before the bubble burst
I'm happy you answered my calls
I'm bouncing off the walls
Impossible to be tamed
Her need- celophane
I'm happy you like to play games
Why did you run away?

We could spend some time together
What he had he'll never know
Your boyfriend gives you no respect
And i can see your getting it
So lets figure it out let's go.

I'm happy you're so impulsive
Means that your passionate
Im happy you're moving so fast
But will it ever last
I know you wanna break free
I'm happy you're coming with me
But by choice its gotta be

We can spend some time together
What he has he'll never know
Your boyfriend gives you no respect
And i can see your getting it

So figure it out lets go

I'm happy you're changing your speed
Slow down and lay with me
On bottom but always discrete
Kneel down and kiss her feet
I'm happy your going too far
Full strength before we start
Sometimes you make it so hard
Scream loud as we come apart

We can spend some time together
What he had he'll never know
Your boyfriend gives you no respect
And i can see your getting it
So figure it out lets go

We can spend some time together
What he has he'll never know
Your boyfriend gives you no respect
And i can see your getting it
So figure it out lets go
Figure it out lets go
Figure it out lets go
Figure it out lets
Go

Thank You.
            
Submit corrections

comments powered by Disqus
↑ Back to top | Maroon 5 Tabs for Figure It Out. Lyrics for acoustic guitar and electric guitar. Tablatures and chords are parodies/interpretations of the original songs. You may use it for private study, scholarship, research or language learning purposes only