>
 >
Control Myself

Control Myself Guitar Tabs

Maroon 5 - Control Myself chords, tabs, tablatures, lyrics

Guitar lessons | Add/correct | Request | Top 50 tabs Artists:  A B C D E F G H I J K L M N O P Q R S T U V W X Y Z 0-9

Control Myself Guitar Tabs – Maroon 5

CD, Sheet music, Poster

Do you like Control Myself? Share with your friends now
TabsTabs v2Tabs v3
Hey guys, this is my first tab, but I'm pretty sure it's okay ;-)

Maroon 5 - Control Myself:

Intro 1:
e|--------------------------------------------------------|
B|--------------------------------------------------------|
G|--1-1-1-------------0-----0------0-----0--1-1-1------2--|
D|--2-2-2-----------2-----2------1-----1----2-2-2----1----|
A|--2-2-2------2--4-----4------2-----2------2-2-2--2------|
E|--0-0-0--0-4------------------------------0-0-0---------|


Verse 1:(I have told..)
e|--------------------------------------------------------|
B|--------------------------------------------------------|
G|--1-1-1-------------0-----0------0-----0--1-1-1------2--|
D|--2-2-2-----------2-----2------1-----1----2-2-2----1----|
A|--2-2-2------2--4-----4------2-----2------2-2-2--2------|
E|--0-0-0--0-4------------------------------0-0-0---------|

(I have seen..)
e|--------------------------------------------------------|
B|--------------------------------------------------------|
G|--1-1-1-------------0-----0------0-----0----------------|
D|--2-2-2-----------2-----2------1-----1------------------|
A|--2-2-2------2--4-----4------2-----2--------------------|
E|--0-0-0--0-4--------------------------------------------|


Chorus 1:(I can't find..)
e|-----------------------------------------------------------------------|
B|--------------------------------------------------------------4-4-4-4--|
G|--1-1-1-1-1-1-1-1---------------------------------------------4-4-4-4--|
D|--2-2-2-2-2-2-2-2--6-6-6-6-6-6-6-6--7-7-7-7-7-7-7-7--4-4-4-4--4-4-4-4--|
A|--2-2-2-2-2-2-2-2--6-6-6-6-6-6-6-6--7-7-7-7-7-7-7-7--4-4-4-4--2-2-2-2--|
E|--0-0-0-0-0-0-0-0--4-4-4-4-4-4-4-4--5-5-5-5-5-5-5-5--2-2-2-2-----------|

(They say I'm doomed..)
e|-----------------------------------------------------------------------|
B|-----------------------------------------------------------------------|
G|--1-1-1-1-1-1-1-1------------------------------------------------------|
D|--2-2-2-2-2-2-2-2--6-6-6-6-6-6-6-6--7-7-7-7-7-7-7-7--4-4-4-4-4-4-4-4---|
A|--2-2-2-2-2-2-2-2--6-6-6-6-6-6-6-6--7-7-7-7-7-7-7-7--4-4-4-4-4-4-4-4---|
E|--0-0-0-0-0-0-0-0--4-4-4-4-4-4-4-4--5-5-5-5-5-5-5-5--2-2-2-2-2-2-2-2---|


Intro 2:
e|--------------------------------------------------------|
B|--------------------------------------------------------|
G|--1-1-1-------------0-----0------0-----0--1-1-1------2--|
D|--2-2-2-----------2-----2------1-----1----2-2-2----1----|
A|--2-2-2------2--4-----4------2-----2------2-2-2--2------|
E|--0-0-0--0-4------------------------------0-0-0---------|


Verse 2:(I have tried..)
e|--------------------------------------------------------|
B|--------------------------------------------------------|
G|--1-1-1-------------0-----0------0-----0--1-1-1------2--|
D|--2-2-2-----------2-----2------1-----1----2-2-2----1----|
A|--2-2-2------2--4-----4------2-----2------2-2-2--2------|
E|--0-0-0--0-4------------------------------0-0-0---------|

(But when I see..)
e|--------------------------------------------------------|
B|--------------------------------------------------------|
G|--1-1-1-------------0-----0------0-----0----------------|
D|--2-2-2-----------2-----2------1-----1------------------|
A|--2-2-2------2--4-----4------2-----2--------------------|
E|--0-0-0--0-4--------------------------------------------|


Chorus 2:(I can't find..)
e|-----------------------------------------------------------------------|
B|--------------------------------------------------------------4-4-4-4--|
G|--1-1-1-1-1-1-1-1---------------------------------------------4-4-4-4--|
D|--2-2-2-2-2-2-2-2--6-6-6-6-6-6-6-6--7-7-7-7-7-7-7-7--4-4-4-4--4-4-4-4--|
A|--2-2-2-2-2-2-2-2--6-6-6-6-6-6-6-6--7-7-7-7-7-7-7-7--4-4-4-4--2-2-2-2--|
E|--0-0-0-0-0-0-0-0--4-4-4-4-4-4-4-4--5-5-5-5-5-5-5-5--2-2-2-2-----------|

(They say I'm doomed..)
e|-----------------------------------------------------------------------|
B|-----------------------------------------------------------------------|
G|--1-1-1-1-1-1-1-1------------------------------------------------------|
D|--2-2-2-2-2-2-2-2--6-6-6-6-6-6-6-6--7-7-7-7-7-7-7-7--4-4-4-4-4-4-4-4---|
A|--2-2-2-2-2-2-2-2--6-6-6-6-6-6-6-6--7-7-7-7-7-7-7-7--4-4-4-4-4-4-4-4---|
E|--0-0-0-0-0-0-0-0--4-4-4-4-4-4-4-4--5-5-5-5-5-5-5-5--2-2-2-2-2-2-2-2---|

(But if I'm sitting here lonely..)
e|-----------------------------------------------------------------------|
B|-----------------------------------------------------------------------|
G|--1-1-1-1-1-1-1-1------------------------------------------------------|
D|--2-2-2-2-2-2-2-2--6-6-6-6-6-6-6-6--7-7-7-7-7-7-7-7--4-4-4-4-4-4-4-4---|
A|--2-2-2-2-2-2-2-2--6-6-6-6-6-6-6-6--7-7-7-7-7-7-7-7--4-4-4-4-4-4-4-4---|
E|--0-0-0-0-0-0-0-0--4-4-4-4-4-4-4-4--5-5-5-5-5-5-5-5--2-2-2-2-2-2-2-2---|

(I'm trying to control myself..)
e|-----------------------------------------------------------------------|
B|-----------------------------------------------------------------------|
G|-----------------------------------------------------------------------|
D|--4-4-4-4-4-4-4-4--6-6-6-6-6-6-6-6-------------------------------------|
A|--4-4-4-4-4-4-4-4--6-6-6-6-6-6-6-6-------------------------------------|
E|--2-2-2-2-2-2-2-2--4-4-4-4-4-4-4-4-------------------------------------|


Intro 2:
e|--------------------------------------------------------|
B|--------------------------------------------------------|
G|--1-1-1-------------0-----0------0-----0--1-1-1------2--|
D|--2-2-2-----------2-----2------1-----1----2-2-2----1----|
A|--2-2-2------2--4-----4------2-----2------2-2-2--2------|
E|--0-0-0--0-4------------------------------0-0-0---------|


Verse 3:(bass; 1.39)(I have told..)
e|--------------------------------------------------------|
B|--------------------------------------------------------|
G|--1-1-1-------------0-----0------0-----0--1-1-1------2--|
D|--2-2-2-----------2-----2------1-----1----2-2-2----1----|
A|--2-2-2------2--4-----4------2-----2------2-2-2--2------|
E|--0-0-0--0-4------------------------------0-0-0---------|(4x)

Guitar (1.55)(I've been acting irresponsibly..)
e|-----------------------------------------------------------------------|
B|-----------------------------------------------------------------------|
G|--1-1-1-1-1-1-1-1--6-6-6-6-6-6-6-6--4-4-4-4-4-4-4-4--1-1-1-1-1-1-1-1---|
D|--2-2-2-2-2-2-2-2--6-6-6-6-6-6-6-6--4-4-4-4-4-4-4-4--2-2-2-2-2-2-2-2---|
A|--2-2-2-2-2-2-2-2--4-4-4-4-4-4-4-4--2-2-2-2-2-2-2-2--2-2-2-2-2-2-2-2---|
E|--0-0-0-0-0-0-0-0------------------------------------0-0-0-0-0-0-0-0---|

(I have choked on all your remedies..)
e|-----------------------------------------------------------------------|
B|-----------------------------------------------------------------------|
G|--1-1-1-1-1-1-1-1--6-6-6-6-6-6-6-6--4-4-4------------------------------|
D|--2-2-2-2-2-2-2-2--6-6-6-6-6-6-6-6--4-4-4------------------------------|
A|--2-2-2-2-2-2-2-2--4-4-4-4-4-4-4-4--2-2-2------------------------------|
E|--0-0-0-0-0-0-0-0------------------------------------------------------|


Solo (figure it out by yourself!)


Chorus 3:(But if I sit here lonely..)
e|-----------------------------------------------------------------------|
B|-----------------------------------------------------------------------|
G|--1-1-1-1-1-1-1-1------------------------------------------------------|
D|--2-2-2-2-2-2-2-2--6-6-6-6-6-6-6-6--7-7-7-7-7-7-7-7--4-4-4-4-4-4-4-4---|
A|--2-2-2-2-2-2-2-2--6-6-6-6-6-6-6-6--7-7-7-7-7-7-7-7--4-4-4-4-4-4-4-4---|
E|--0-0-0-0-0-0-0-0--4-4-4-4-4-4-4-4--5-5-5-5-5-5-5-5--2-2-2-2-2-2-2-2---|

(I'm trying to control..)
e|-----------------------------------------------------------------------|
B|-----------------------------------------------------------------------|
G|-----------------------------------------------------------------------|
D|--4-4-4-4-4-4-4-4--6-6-6-6-6-6-6-6--4-4-4-4-4-4-4-4--6-6-6-6-6-6-6-6---|
A|--4-4-4-4-4-4-4-4--6-6-6-6-6-6-6-6--4-4-4-4-4-4-4-4--6-6-6-6-6-6-6-6---|
E|--2-2-2-2-2-2-2-2--4-4-4-4-4-4-4-4--2-2-2-2-2-2-2-2--4-4-4-4-4-4-4-4---|

e|-----------------------------------------------------------------------|
B|-----------------------------------------------------------------------|
G|-----------------------------------------------------------------------|
D|--4----------------6---------------------------------------------------|
A|--4----------------6---------------------------------------------------|
E|--2----------------4---------------------------------------------------|


Outro:(Myself..)
e|--------------------------------------------------------|
B|--------------------------------------------------------|
G|--1-1-1-------------0-----0------0-----0--1-1-1---------|
D|--2-2-2-----------2-----2------1-----1----2-2-2---------|
A|--2-2-2------2--4-----4------2-----2------2-2-2---------|
E|--0-0-0--0-4------------------------------0-0-0---------|

That's it!





Comments


Popular Maroon 5 tabs & chords
Goodnight Goodnight Bass Tabs
The Sun Bass Tabs
Daylight 1 Chords
How 1 Chords
Moves Like Jagger 5 Chords
Must Get Out 1 Chords
Sad 3 Chords
She Will Be Loved 11 Chords
Cant Stop Intro Tabs
Ragdoll Tabs


Song lyrics



↑ Back to top | Tablatures and chords are parodies/interpretations of the original songs. You may use it for private study, scholarship, research or language learning purposes only
© 2014 AZChords.com Contact us | Privacy policy | DMCA | Add/correct tabs | Request tabs | Top 50 tabs