» » »

Maroon 5, As Things Collide Tabs (ver.1)

Artists:  A B C D E F G H I J K L M N O P Q R S T U V W X Y Z # 

As Things Collide Tabs (ver.1)

Maroon 5 Tabs
 Rating:
4.3/5 (6 votes)
As Things Collide lessons Tabs too difficult? Try these video lessons and learn fast
                I kept looking around online, and I realized that there is not a lot of tabs
for this song online. And I can guarantee you there are no tabs that are
actually correct! All of the ones online are pretty much copies of each
other, and they all have the wrong chords for the bridge. And none of them
have the notes for the solo or the tabs for the intro and bridge written
out. So, I sat down and worked it out. It took me a while, but I can
guarantee you that this will sound perfect when you play it. If you don't
believe me, play this with the song and then compare it with the other
chords online and you'll see that this one is right. Plus, I have the solo

Here you go... Enjoy... And please, leave comments if you have any questions or concerns...

-----------------------------

Maroon 5

Intro Riff and Verse Riff:

  D  A   G   A      G  A  D
E|--------------------3--5----------|
B|7--5---3-----------3--5-7~--------|
G|77-6-6-4--466h76--4--6--7~--------|
D|7-77--75-5------7-------7~--------|
A|-----------------7----------------|
E|----------------------------------|

The guitarist does a lot of variations on this riff throughout this song,
but this is the basic riff. If you play this the whole way through, no one
will know the difference, but if you really feel the urge you can fill in a
bunch of extras in between and change it up a bit.

If you want, you can switch to this strumming pattern as the song picks up.

  D  A   G   A    G  A  D
E|22~0~0~3~3~0000~33~00~2~--------|
B|33~2~2~3~3~2322~33~22~3~--------|
G|22~2~2~0~0~2222~00~22~2~--------|
D|00~2~2~0~0~2222~00~22~0~--------|
A|00~0~0~2~2~0000~22~00~0~--------|
E|-------3~3~-----33~-------------|

Bridge:

This is the bridge as played when picking. This can be done through the
whole song, but if you want to use the strumming pattern, as shown below,
then just use the picking for the first part of the song then switch to
strumming. If you listen to the song, you’ll know where to make the switch.

  Bm      Bm/A#   BmA     E/D     G       A
E|---------------------------0--------3------5----|
B|---3-------3-------3---------3--------3------5--|
G|-4---4---3---3---2---2---1----1--0-----0-6----6-|
D|--4---4---4---4---4---4---0-------0-------7-----|
A|2-------2-------2-------------------------------|
E|------------------------0-------3-------5-------|

  Bm      Bm/A#   BmA    E/D      G       A
E|-----------------------0~00~00003~33~3335~55~555-|
B|--------3~33~3333~33~333~33~33333~33~3335~55~555-|
G|4~44~4443~33~3332~22~221~11~11110~00~0006~66~666
D|4~44~4444~44~4444~44~440~00~00000~00~0007~77~777
A|2~22~2222~22~2222~22~222~22~22222~22~2227~77~777
E|-----------------------0~00~00003~33~3335~55~555

Build-up:

  D       E       F       G
E|22222222444444445555555577777777
B|33333333555555556666666688888888
G|22222222444444445555555577777777
D|--------------------------------|
A|--------------------------------|
E|--------------------------------|

This is the strumming pattern for the build-up.

  D       E       F       G
E|22222222000000001111111133333333
B|33333333000000001111111133333333
G|22222222111111112222222200000000
D|00000000222222223333333300000000
A|00000000222222223333333322222222
E|--------000000001111111133333333

Piano Breakdown:

E|-----------------|
B|-----------------|
G|-----------------|
D|----353-----7-53-|
A|-035---5-035-----|
E|-----------------|

Guitar Solo:

E|-------------------------------------------------------------------|
B|101010~-----------------------------------101010~------------------|
G|-------------4~------4h6p42~----------------------------4~-----4h5-|
D|-------------------------------------------------------------------|
A|-------------------------------------------------------------------|
E|-------------------------------------------------------------------|

E|-------------------------------------10---------------10~--12bu~------10~----|
B|-----------------10-7-10-7----10--10--------10-------------12bu~-------------|
G|7~--------------7--7-7--7-74-7--77--7--73--7--774-7911-----------------------|
D|-----------------------------------------------------------------------------|
A|-----------------------------------------------------------------------------|
E|-----------------------------------------------------------------------------|

E|10~----10~------/1214~---------------17~-15~14-------------------------------|
B|----------------------------13~---------------15-----------------------------|
G|------------------------------------------------14--------14--14~--14--14~---|
D|--------------------------------------------------16~-------16---16--16------|
A|-----------------------------------------------------------------------------|
E|-----------------------------------------------------------------------------|

E|---------------------------------------17b19r19------------|
B|---15--15~--151717b19~-1919-r1715h1715~---------15~--------|
G|/14--14---14-----------------------------------------------|
D|-----------------------------------------------------------|
A|-----------------------------------------------------------|
E|-----------------------------------------------------------|

E|------------------------------------14~--------------------------------------|
B|15~1415~-1415~-1415~14-/17~15~15151417b19~----r1715~-14~---------------------|
G|--------------------------------------------------------14~------------------|
D|-----------------------------------------------------------16~--14~--12~-----|
A|-----------------------------------------------------------------------------|
E|-----------------------------------------------------------------------------|

E|---------------------------------------------------------|
B|---------------------------------------------------------|
G|---------------------------------------------------------|
D|9~------8~------7~-----/14~------5~------7~--------------|
A|x-------x-------x-------x--------x-------x---------------|
E|7~------6~------5~-----/12~------3~------5~--------------|
            
Submit corrections

comments powered by Disqus
↑ Back to top | Maroon 5 Tabs for As Things Collide. Lyrics for acoustic guitar and electric guitar. Tablatures and chords are parodies/interpretations of the original songs. You may use it for private study, scholarship, research or language learning purposes only