» » »

Skin The Mofo Alive Bass tabs (ver.1)

Artists:  A B C D E F G H I J K L M N O P Q R S T U V W X Y Z # 

Skin The Mofo Alive Bass tabs (ver.1)

Marmaduke Duke
Rating:
5/5 (2 votes)

Hard to play? Try these video lessons and learn fast.
                
The bass comes in just after the guitar and with "I got a call last Sunday..."

Verse
G|--------------------------------------------------------------------------|
D|--------------------------------------------------------------------------|
A|---2--2--4-4-4----0-0-----------------------------------------------------|
E|-------------------------0-0----------------------------------------------|


Chorus:
G|--------------------------------------------------------------------------|
D|---------------------------22-222--22-222---------------------------------|
A|----55--555-----00-000----------------------------------------------------|
E|--------------------------------------------------------------------------|

(Tie up the winners of the world tonight...)

Verse1
Chorus
Verse2
Chorus
(F# G F#) No bass
Bridge: Play the verse over the steel drums part


Outro: (Tie up the winners of the world.)
G|--------------------------------------------------------------------------|
D|--------------------------------------------------------------------------|
A|--------------------------------------------------------------------------|
E|---0----0----0----0-------------------------------------------------------|
            
Hard to play? Try these video lessons and learn fast. | Correct




comments powered by Disqus
↑ Back to top | Tablatures and chords are parodies/interpretations of the original songs. You may use it for private study, scholarship, research or language learning purposes only