» » »

Marmaduke Duke, Single Ladies Tabs (ver.2)

Artists:  A B C D E F G H I J K L M N O P Q R S T U V W X Y Z # 

Single Ladies Tabs (ver.2)

Marmaduke Duke Tabs
 Rating:
4/5 (4 votes)
Single Ladies lessons Tabs too difficult? Try these video lessons and learn fast
                

Verse

Up in the club, just broke up, doing my own little thing......

E]-------]
B]-------]
G]-------]
D]--5----]
A]--5----]
E]--3----]


Don't treat me to the things of the world

E]--8------------------3-]
B]--8------------------3-]
G]--8------------------3-]
D]--10-----------------5-]
A]--10-----------------5-]
E]--8------------------3-]


I'm not that kind of girl, your love is what I prefer, what I deserve

E]--8---------------------------3-----------------------------8-------]
B]--8---------------------------3-----------------------------8-------]
G]--8---------------------------3-----------------------------8-------]
D]--10--------------------------5-----------------------------10------]
A]--10--------------------------5-----------------------------10------]
E]--8---------------------------3-----------------------------8-------]


Here's a man that makes me then takes me and delivers me to a destiny to

E]----------------3--------------------------8-------]
B]----------------3--------------------------8-------]
G]----------------3--------------------------8-------]
D]----------------5--------------------------10------]
A]----------------5--------------------------10------]
E]----------------3--------------------------8-------]


 infinity and beyond, pull me into your arms, say I'm the one you own, If  you

E]-10--------------------------10-------------------]
B]-10--------------------------10-------------------]
G]-11--------------------------11-------------------]
D]-12--------------------------12-------------------]
A]-12--------------------------12-------------------]
E]-10--------------------------10-------------------]

There is one bar which has a slight variation of this chord which I can't work out. 
it sounds ok just playing this for the rest of the bridge before going back into -

All the single ladies, all the single ladies...............

E]-------]
B]-------]
G]-------]
D]--5----]
A]--5----]
E]--3----]

I don't think it's too wildly off for a first crack at tabbing!

Monoloco
            
Submit corrections

comments powered by Disqus
↑ Back to top | Marmaduke Duke Tabs for Single Ladies. Lyrics for acoustic guitar and electric guitar. Tablatures and chords are parodies/interpretations of the original songs. You may use it for private study, scholarship, research or language learning purposes only