» » »

Silhouettes Tabs (ver.1)

Artists:  A B C D E F G H I J K L M N O P Q R S T U V W X Y Z # 

Silhouettes Tabs (ver.1)

Marmaduke Duke
Rating:
5/5 (2 votes)

Hard to play? Try these video lessons and learn fast.
                
Verse 1
E|-------------------------------------------------|
B|-------------------------------------------------|
G|------9----------------------9-------------------|
D|----------7-7--7-7-9-------------7-7--7-7-9------|
A|--9-------------------7--9-------------------7---|
D|-------------------------------------------------|

E|-------------------------------------------------|
B|-------------------------------------------------|
G|------9----------------------9-------------------|
D|----------7-7--7-7-9-------------7-7--7-7-9------|
A|--9-------------------7--9-------------------9---|
D|-------------------------------------------------|

E|-------------------------------------------------|
B|-------------------------------------------------|
G|-------------------------------------------------|
D|-------------------------------------------------|
A|--7--7--7-7--7-7--7--7--7---7--7-7--7-7--7-8-----|
D|-------------------------------------------------|

E|-------------------------------------------------|
B|-------------------------------------------------|
G|------9----------------------9-------------------|
D|----------7-7--7-7-9-------------7-7--7-7-9------|
A|--9-------------------7--9-------------------9---|
D|-------------------------------------------------|


Verse 2
(Repeat Verse 1)


Chorus
E|---------------------------------------------------|
B|--7--7--7--7--9--9--9--9--10-10-10-10-10-10-10-10--|
G|--7--7--7--7--9--9--9--9--11-11-11-11-11-11-11-11--|
D|--7--7--7--7--9--9--9--9--11-11-11-11-11-11-11-11--|
A|---------------------------------------------------|
D|---------------------------------------------------|

E|---------------------------------------------------|
B|--7--7--7--7--9--9--9--9--10-10-10-10--9--9--9--9--|
G|--7--7--7--7--9--9--9--9--11-11-11-11-11-11-11-11--|
D|--7--7--7--7--9--9--9--9--11-11-11-11-11-11-11-11--|
A|---------------------------------------------------|
D|---------------------------------------------------|

E|---------------------------------------------------|
B|--7--7--7--7--9--9--9--9--10-10-10-10-10-10-10-10--|
G|--7--7--7--7--9--9--9--9--11-11-11-11-11-11-11-11--|
D|--7--7--7--7--9--9--9--9--11-11-11-11-11-11-11-11--|
A|---------------------------------------------------|
D|---------------------------------------------------|

E|--------------------|
B|--7--7--7--7--9-----|
G|--7--7--7--7--9-----|
D|--7--7--7--7--9-----|
A|--------------------|
D|--------------------|


Instrumental
E|-------------------------------------------------|
B|-------------------------------------------------|
G|------9----------------------9-------------------|
D|----------7-7--7-7-9-------------7-7--7-7-9------|
A|--9-------------------7--9-------------------7---|
D|-------------------------------------------------|

E|------------------------------|
B|------------------------------|
G|------9-----------------------|
D|----------7-7--7-7-9----------|
A|--9-------------------7--9----|
D|------------------------------|


Verse 3
E|--------------------------------------------------|
B|--------------------------------------------------|
G|--------------------------------------------------|
D|--------------------------------------------------|
A|--------------------------------------------------|
D|--4---2--4--2-4---2--4--2-4---2--4--2-4--2--4--4--|

E|-------------------------------------------------------|
B|-------------------------------------------------------|
G|------------------------------------------4-6-4--------|
D|----------------------------------------7-------7-4-2--|
A|-------------------------------------------------------|
D|--2---2--2--0-2---2--2--0-4---2--4--2-4----------------|

E|--------------------------------------------------|
B|--------------------------------------------------|
G|--------------------------------------------------|
D|--------------------------------------------------|
A|--------------------------------------------------|
D|--4---2--4--2-4---2--4--2-4---2--4--2-4--2--4--4--|

E|----------------------------------------0h2p0----------|
B|----------------------------------------------2p0------|
G|--------------------------------------------------2p1--|
D|-------------------------------------------------------|
A|-------------------------------------------------------|
D|--2---2--2--0-2---2--2--0-4---2--4--2-4----------------|


Chorus 2
E|---------------------------------------------------|
B|--7--7--7--7--9--9--9--9--10-10-10-10-10-10-10-10--|
G|--7--7--7--7--9--9--9--9--11-11-11-11-11-11-11-11--|
D|--7--7--7--7--9--9--9--9--11-11-11-11-11-11-11-11--|
A|---------------------------------------------------|
D|---------------------------------------------------|

E|---------------------------------------------------|
B|--7--7--7--7--9--9--9--9--10-10-10-10--9--9--9--9--|
G|--7--7--7--7--9--9--9--9--11-11-11-11-11-11-11-11--|
D|--7--7--7--7--9--9--9--9--11-11-11-11-11-11-11-11--|
A|---------------------------------------------------|
D|---------------------------------------------------|

E|---------------------------------------------------|
B|--7--7--7--7--9--9--9--9--10-10-10-10-10-10-10-10--|
G|--7--7--7--7--9--9--9--9--11-11-11-11-11-11-11-11--|
D|--7--7--7--7--9--9--9--9--11-11-11-11-11-11-11-11--|
A|---------------------------------------------------|
D|---------------------------------------------------|

E|---------------------------------------------------|
B|--7--7--7--7--9--9--9--9--10-10-10-10--9--9--9--9--|
G|--7--7--7--7--9--9--9--9--11-11-11-11-11-11-11-11--|
D|--7--7--7--7--9--9--9--9--11-11-11-11-11-11-11-11--|
A|---------------------------------------------------|
D|---------------------------------------------------|


Bridge
E|--------------------------------0-----------4----|
B|------3p2---------3p0---------2-----------2------|
G|----2-----------2-----------2-----------2--------|
D|--0-----------2-----------4-----------4----------|
A|-------------------------------------------------|
D|-------------------------------------------------|x3

E|----------------------------|
B|------3p2---------3p0-------|
G|----2-----------2-----------|
D|--0-----------2-------------|
A|----------------------------|
D|----------------------------|


Outro
E|--9--9--9--9--9--9--9--9--9--9--9--9--9--9--9--9--9---|
B|--11-11-11-11-11-11-11-11-11-11-11-11-11-11-11-11-11--|
G|--11-11-11-11-11-11-11-11-11-11-11-11-11-11-11-11-11--|
D|------------------------------------------------------|
A|------------------------------------------------------|
D|------------------------------------------------------|
            
Hard to play? Try these video lessons and learn fast. | Correct




comments powered by Disqus
↑ Back to top | Tablatures and chords are parodies/interpretations of the original songs. You may use it for private study, scholarship, research or language learning purposes only