» » »

Marmaduke Duke, Rubber Lover Bass tabs (ver.1)

Artists:  A B C D E F G H I J K L M N O P Q R S T U V W X Y Z # 

Rubber Lover Bass tabs (ver.1)

Marmaduke Duke Tabs
 Rating:
3.8/5 (5 votes)
Rubber Lover lessons Tabs too difficult? Try these video lessons and learn fast
1
                -------------------------------------------------------------------------------
-------------------------------------------------------------------------------


Nice easy one to play

Tuning: Standard

Intro
G|----------------------|
D|----------------------|
A|-------------5--5-----|
E|--3---3--5----------5-|

Repeat this throughout song
G|-----------------------|
D|-----------------------|
A|-------------5-5--5----|
E|--3-3--3--5----------5-|

Break > 1:23
G|------------|
D|------------|
A|--5-5--5----|
E|----------5-|

Throw this variation every now and again
G|------------------------|
D|------------------------|
A|-------------5-5--5-----|
E|--2h3--3--5----------5--|


| /  slide up
| \  slide down
| h  hammer-on
| p  pull-off
| ~  vibrato
| +  harmonic
| x  Mute note
            
Submit corrections

comments powered by Disqus
↑ Back to top | Marmaduke Duke Bass for Rubber Lover. Lyrics for acoustic guitar and electric guitar. 1 Tablatures and chords are parodies/interpretations of the original songs. You may use it for private study, scholarship, research or language learning purposes only