» » »

Marmaduke Duke, Kill And The Kure Tabs (ver.1)

Artists:  A B C D E F G H I J K L M N O P Q R S T U V W X Y Z # 

Kill And The Kure Tabs (ver.1)

Marmaduke Duke Tabs
 Rating:
4.2/5 (5 votes)
Kill And The Kure lessons Tabs too difficult? Try these video lessons and learn fast
1
                
e|------------------------------------------------|
B|------------------------------------------------|
G|------------4-44-4-444-4-44-4-444-4-44-4-44-22--|
D|-3-33-3-333-3-33-3-333-3-33-3-333-3-33-3-33-11--|
A|-----------------------5-55-5-555-----------22--|
D|--------------------------------------------11--|

e|----------------------------------------------|
B|----------------------------------------------|
G|-4444-4-444-4444-4-444-4444-4-444-4444-4-4-22-|
D|-2222-2-222-2222-2-222-2222-2-222-2222-2-2-11-|
A|-2222-2-222-2222-2-222-2222-2-222-2222-2-2-22-|
D|-2222-2-222-2222-2-222-2222-2-222-2222-2-2-11-| x2

e|-----------------------|
B|-----------------------|
G|-----------------------|
D|-----------------------|
A|-------0-2-------0-3-2-|
D|-2-4-5-----2-4-5-------| x7

e|--------------|
B|--------------|
G|--------------|
D|--------------|
A|-------0-2----|
D|-2-4-5--------|

e|------------------------|
B|------------------------|
G|------------------------|
D|------------------------|
A|---------1---------2-1--|
D|-0-2-3-4---0-2-3-4------| x4

e|-----------------------|
B|-----------------------|
G|-----------------------|
D|-----------------------|
A|-------0-2-------0-3-2-| 
D|-2-4-5-----2-4-5-------| x3

e|--------------|
B|--------------|
G|--------------|
D|--------------|
A|-------0-2----|
D|-2-4-5--------|

e|------------------|
B|------------------|
G|-555-6--7--8--99--|
D|-555-6--7--8--99--|
A|-333-4--5--6--77--|
D|-555-6--7--8--99--| x8 (bottem D notes may not be needed)

e|----------------------------|
B|----------------------------|
G|----------------------------|
D|-------------------------2--|
A|----4----4/5----4-----4/5---|
D|-222--222----222---222------| x2

e|--------------------------|
B|--------------------------|
G|-----------------------0--|
D|----2----2h3---2----2h3---|
A|--------------------------|
D|-222--222---222--222------| x2

e|-----------------|
B|-----------------|
G|-5555-55-5-5-----|
D|-5555-55-5-5-----|
A|-3333-33-3-3-----| 
D|-----------------| x2

e|-----------------|
B|-----------------|
G|-4444-44-4-4-----|
D|-2222-22-2-2-----|
A|-2222-22-2-2-----|
D|-2222-22-2-2-----| x2

e|------------------|
B|------------------|
G|-2h4-44-4-4-4/77--|
D|-2h4-44-4-4-4/77--|
A|------------------|
D|------------------|

e|-----------------|
B|-----------------|
G|-5555-55-5-5-----|
D|-5555-55-5-5-----|
A|-3333-33-3-3-----| 
D|-----------------| x2

e|-----------------|
B|-----------------|
G|-4444-44-4-4-----|
D|-2222-22-2-2-----|
A|-2222-22-2-2-----|
D|-2222-22-2-2-----| x2

e|------------------|
B|------------------|
G|-2h4-44-4-4-4/77--|
D|-2h4-44-4-4-4/77--|
A|------------------|
D|------------------|

e|----------------------------------------------|
B|----------------------------------------------|
G|-4444-4-444-4444-4-444-4444-4-444-4444-4-4-22-|
D|-2222-2-222-2222-2-222-2222-2-222-2222-2-2-11-|
A|-2222-2-222-2222-2-222-2222-2-222-2222-2-2-22-|
D|-2222-2-222-2222-2-222-2222-2-222-2222-2-2-11-| x4

e|------------------|
B|------------------|
G|-555-6--7--8--99--|
D|-555-6--7--8--99--|
A|-333-4--5--6--77--|
D|-555-6--7--8--99--| x8 

e|-----------------|
B|-----------------|
G|-5555-55-5-5-----|
D|-5555-55-5-5-----|
A|-3333-33-3-3-----| 
D|-----------------| x2

e|-----------------|
B|-----------------|
G|-4444-44-4-4-----|
D|-2222-22-2-2-----|
A|-2222-22-2-2-----|
D|-2222-22-2-2-----| x2

e|------------------|
B|------------------|
G|-2h4-44-4-4-4/77--|
D|-2h4-44-4-4-4/77--|
A|------------------|
D|------------------|

e|-----------------|
B|-----------------|
G|-5555-55-5-5-----|
D|-5555-55-5-5-----|
A|-3333-33-3-3-----| 
D|-----------------| x2

e|-----------------|
B|-----------------|
G|-4444-44-4-4-----|
D|-2222-22-2-2-----|
A|-2222-22-2-2-----|
D|-2222-22-2-2-----| x2

e|------------------|
B|------------------|
G|-2h4-44-4-4-4/77--|
D|-2h4-44-4-4-4/77--|
A|------------------|
D|------------------|

e|----------------------------------------------|
B|----------------------------------------------|
G|-4444-4-444-4444-4-444-4444-4-444-4444-4-4-22-|
D|-2222-2-222-2222-2-222-2222-2-222-2222-2-2-11-|
A|-2222-2-222-2222-2-222-2222-2-222-2222-2-2-22-|
D|-2222-2-222-2222-2-222-2222-2-222-2222-2-2-11-| x4

e|-------------------------------------------------------------|
B|-------------------------------------------------------------|
G|-------------------------------------------------------------|
D|----------<5>----------------------<5>------------<5>--------|
A|-<4>--------<4>-<5>--<4>-----<5>-<4>--<5>-<4>-------<4>-<4>--|
D|---<5>-<4>----<5>------<5>-<4>--------------<5>-<4>---<5>----|
*harmonics - which im fairly bad at tabbing but they’re ROUGHLY right

Enjoy



Key
h   = hammer on
/   = slide up
\   = slide down
<*> = natural harmonic
            
Submit corrections

comments powered by Disqus
↑ Back to top | Marmaduke Duke Tabs for Kill And The Kure. Lyrics for acoustic guitar and electric guitar. 1 Tablatures and chords are parodies/interpretations of the original songs. You may use it for private study, scholarship, research or language learning purposes only