» » »

Marmaduke Duke, An Imposter And A Magician Tabs (ver.1)

Artists:  A B C D E F G H I J K L M N O P Q R S T U V W X Y Z # 

An Imposter And A Magician Tabs (ver.1)

Marmaduke Duke Tabs
Rating:
0/5 (0 votes)
An Imposter And A Magician lessons Tabs too difficult? Try these video lessons and learn fast
                An Imposter And A Magician by Marmaduke Duke

Found this song pretty difficult to tab, but I think its about 
90% accurate. The tuning on Guitar 1 could probably be 
transcribed onto a Drop C guitar, but this tuning is easier.
The guitars aren't tabbed in perfect timing, but I got them as 
close as possible. You can work it from listening to the song.


Enjoy, and if anyone even checks this tab, please rate it!

Guitar 1 - Standard but tune 6th down to C 
Guitar 2 - Standard



Intro

Guitar 1 
e|-----------------------------------------------------------------|
B|-----------------------------------------------------------------|
G|-----------------------------------------------------------------|
D|-9---7---0---0h2----4-2-4--5----9---7---0---0h2----4-2-4----7-5--|
A|-----------------------------------------------------------------|
C|-7---7---7---0------2------4----7---7---7---0------2--------4----|

Guitar 2
e|-----------------------------------------------------------------|
B|-----------------------------------------------------------------|
G|-----------------------------------------------------------------|
D|-----------------------------------------------------------------|
A|-----------------------------------------------------------------|
E|-----------------------------------------------------------------|

Guitar 1                                                       "Bet you..."
e|----------------------------------------------------------------------|
B|----------------------------------------------------------------------|
G|----------------------------------------------------------------------|
D|-9-----10---12--10----10------12-----12--------/14---14\-----9--7--0--|
A|----------------------------------------------------------------------|
C|-7-----9----11--9---9----9----11--11----11------0--0---------7--7--7--|

Guitar 2 
e|-10----8----7---8------8------10-------10-------7-----7----|
B|----12---10---8---10-----10------12-------12------8-----8--|
G|--------------------(9)----(9)-----(12)-----(12)---(9)-----|
D|-----------------------------------------------------------|
A|-----------------------------------------------------------|
E|-----------------------------------------------------------|



Verse

Guitar 1
e|------------------------------------------------------|
B|------------------------------------------------------|
G|------------------------------------------------------|
D|-0h2---------4--2--4-----5------------9-----7----0----|
A|------------------------------------------------------|
C|-0-----------2-----------4------------7-----7----7----|

Guitar 2 
e|-3-----3-----5-----5-----7-----7------10----8----7----|
B|---5-----5-----7-----7-----8-----8-------12---10---8--|
G|-----5-----5-----7-----7-----9-----9------------------|
D|------------------------------------------------------|
A|------------------------------------------------------|
E|------------------------------------------------------|

Guitar 1
e|------------------------------------------------------|
B|------------------------------------------------------|
G|------------------------------------------------------|
D|-0h2--------4--2--4------7----5-------9-----10---12---|
A|------------------------------------------------------|
C|-0----------2------------4------------7-----9----11---|

Guitar 2
e|-3-----3-----5-------5/--8----7-------10----8----7----|
B|---5-----5-----7---7-------10---8---8----12---10---8--|
G|-----5-----5-----7----------------9-------------------|
D|------------------------------------------------------|
A|------------------------------------------------------|
E|------------------------------------------------------|

     "and you change..."

Guitar 1
e|---------------------------------------------------|
B|---------------------------------------------------|
G|---------------------------------------------------|
D|-10-----10-----12------12---------12/14----14---14-|
A|---------------------------------------------------|
E|-9---9-----9---11---11-----11-----0------0----0----|

Guitar 2
e|-8------8------10-------10--------7-----7-----7----|
B|---10-----10------12-------12-------8-----8-----8--|
G|------9------9-------12-------12------9-----9------|
D|---------------------------------------------------|
A|---------------------------------------------------|
E|---------------------------------------------------|



Chorus

"Sometimes I am afraid..."

Guitar 1
e|--------------------------------------------------|
B|--------------------------------------------------|
G|--------------------------------------------------|
D|----4-----4-----4-----4-----4-----4-----4-----4---|
A|--------------------------------------------------|
E|-4-----4-----4-----4-----2-----2-----2-----2------|

Guitar 2
e|---2-----2-----2-----2-----2-----2-----2-----2----|
B|-----3-----3-----3-----3-----3-----3-----3-----3--|
G|--------------------------------------------------|
D|-2-----2-----2-----2-----0-----0-----0-----0------|
A|--------------------------------------------------|
E|--------------------------------------------------|

Guitar 1
e|--------------------------------------------------|
B|--------------------------------------------------|
G|--------------------------------------------------|
D|----0-----0-----0-----0-----------------0-----0---|
A|----------------------------7-----7---------------|
E|-7-----7-----7-----7-----7-----7-----7-----7------|

Guitar 2
e|---------------------------------------------0----|
B|---3-----3-----3-----3-----5-----5-----3-------0--|
G|-----0-----0-----0-----0-----0-----0-----0--------|
D|--------------------------------------------------|
A|-3-----3-----3-----3-----3-----3-----3-----3------|
E|--------------------------------------------------|

 "lost in..."

Guitar 1
e|--------------------------------------------------|
B|--------------------------------------------------|
G|--------------------------------------------------|
D|----4-----4-----4-----4-----4-----4---12--12--12--|
A|--------------------------------------------------|
E|-4-----4-----4-----4-----2-----2------11--11--11--|

Guitar 2
e|---2-----2-----2-----2-----2-----2----10--10--10--|
B|-----3-----3-----3-----3-----3-----3--12--12--12--|
G|--------------------------------------12--12--12--|
D|-2-----2-----2-----2-----0-----0------------------|
A|--------------------------------------------------|
E|--------------------------------------------------|



Interlude

 ..."you love the way..."

Guitar 1
e|-----------------------------------------------------------|
B|-----------------------------------------------------------|
G|-----------------------------------------------------------|
D|-0h2----------4--2--4------5------------9-----7-----0------|
A|-----------------------------------------------------------|
E|-0------------2------------4------------7-----7-----7------|

Guitar 2
e|-----3-2----------3-2----------3-2------10-10-10-10-10-10--|
B|---3-----3------3-----3------3-----3----12-12-12-12-12-12--|
G|-----------0------------0------------0--12-12-12-12-12-12--|
D|--------------0------------2---------------------12-12-12--|
A|-3---------------------------------------------------------|
E|-----------------------------------------------------------|

Guitar 1
e|-----------------------------------------------------|
B|-----------------------------------------------------|
G|-----------------------------------------------------|
D|-0h2----------4--2--4------7--(5)--------9---10--12--|
A|-----------------------------------------------------|
E|-0------------2------------4-------------7---9---11--| 

Guitar 2
e|-----3-2----------3-2----------3-2-------10--8---7---|
B|---3-----3------3-----3------3-----3-----12--10--8---|
G|-----------------------------------------------------|
D|--------------0------------2-------------------------|
A|-3---------------------------------------------------|
E|-----------------------------------------------------|



Verse

  "and you change..."

Guitar 1
e|---------------------------------------------------------|
B|---------------------------------------------------------|
G|---------------------------------------------------------|
D|-10----10------10/12------12------12/14---14---14----14--| x4
A|---------------------------------------------------------|
E|-9---9----9----9/-10--10-----10\--0-----0-----0-----0----|

Guitar 2
e|-8------8------10-------10--------7-----7-----7-----7----|
B|---10-----10------12-------12-------8-----8-----8-----8--|
G|---------------------------------------------------------|
D|---------------------------------------------------------| x4
A|---------------------------------------------------------|
E|---------------------------------------------------------|


Repeat Chorus, then


Outro

  "change"

Guitar 1
e|--------------------------------|
B|--------------------------------|
G|--------------------------------|
D|--0-------------------0h2p0-----|
A|--------------------------------|
C|--0-----------------------------|

Unsure of a few bits, but this is the best I can do. Sorry!
            
Submit corrections

comments powered by Disqus
↑ Back to top | Marmaduke Duke Tabs for An Imposter And A Magician. Lyrics for acoustic guitar and electric guitar. Tablatures and chords are parodies/interpretations of the original songs. You may use it for private study, scholarship, research or language learning purposes only