>
 >
Wish You Well

Wish You Well Guitar Tabs

Mark Tremonti - Wish You Well chords, tabs, tablatures, lyrics

Guitar lessons | Add/correct | Request | Top 50 tabs Artists:  A B C D E F G H I J K L M N O P Q R S T U V W X Y Z 0-9

Wish You Well Guitar Tabs – Mark Tremonti

CD, Sheet music, Poster

Do you like Wish You Well? Share with your friends now
Tabs
-----------------------------------------------------------------------------
                           WISH YOU WELL - Tremonti
-----------------------------------------------------------------------------

Tuning: Drop C#

Rate and coment please :)
Sorry for my bad english.


Intro (Main Riff):

eb|---------------------------------|----------------------------|
Bb|---------------------------------|----------------------------|
Gb|---------------------------------|----------------------------|
Db|-1p0-------------6p0-------------|-1p0-------------3---2---1--| x4
Ab|-1p0-0-0-0-0-0-0-6p0-0-0-0-0-0-0-|-1p0-0-0-0-0-0-0-3---2---1--|
Db|-1p0-0-0-0-0-0-0-6p0-0-0-0-0-0-0-|-1p0-0-0-0-0-0-0-3---2---1--|
        * * * * * *     * * * * * *       * * * * * *

eb|----------------------|
Bb|----------------------|
Gb|-7----------5---------|
Db|-7---4---3--5---------|
Ab|-5---4---3--3---3---2-|
Db|-----4---3------3---2-|
                   *   *



Verse: Play Main Riff again x4 but without the last bar.




Chorus:

eb|----------|-----------|
Bb|----------|-----------|
Gb|-5--------|-4----3----|
Db|-3--------|-2----1----|
Ab|-3--------|-2----1----|
Db|-3--------|-2----1----|

eb|---------------------------------|----------------------------|
Bb|---------------------------------|----------------------------|
Gb|---------------------------------|----------------------------|
Db|-1p0-------------6p0-------------|-1p0-------------3---2---1--|
Ab|-1p0-0-0-0-0-0-0-6p0-0-0-0-0-0-0-|-1p0-0-0-0-0-0-0-3---2---1--|
Db|-1p0-0-0-0-0-0-0-6p0-0-0-0-0-0-0-|-1p0-0-0-0-0-0-0-3---2---1--|
        * * * * * *     * * * * * *       * * * * * *
eb|----------|-----------|
Bb|----------|-----------|
Gb|-5--------|-4----3----|
Db|-3--------|-2----1----|
Ab|-3--------|-2----1----|
Db|-3--------|-2----1----|



Bridge:

eb|------------------------|-------------------------|
Bb|------------------------|-------------------------|
Gb|------------------------|-------------------------|
Db|-0-----------6----------|-0--------3-----2-----1--|
Ab|-0--0--0--0--6--0--0--0-|-0--0--0--3--0--2--0--1--|
Db|-0--0--0--0--6--0--0--0-|-0--0--0--3--0--2--0--1--|
       *  *  *     *  *  *      *  *     *     *
eb|-------------------------|----------------|
Bb|-------------------------|----------------|
Gb|-------------------------|----------------|
Db|-0------------6----------|-0--------------|
Ab|-0--0-0-0--0--6--0--0--0-|-0--0--0--3b----|
Db|-0--0-0-0--0--6--0--0--0-|-0--0--0--------|
       * * *  *     *  *  *      *  *
eb|----------------------|
Bb|----------------------|
Gb|-7----------5---------|
Db|-7---4---3--5---------|
Ab|-5---4---3--3---3---2-|
Db|-----4---3------3---2-|
                   *   *


Verse: like the first time



Chorus:

eb|----------|-----------|
Bb|----------|-----------|
Gb|-5--------|-4----3----|
Db|-3--------|-2----1----|
Ab|-3--------|-2----1----|
Db|-3--------|-2----1----|

eb|---------------------------------|----------------------------|
Bb|---------------------------------|----------------------------|
Gb|---------------------------------|----------------------------|
Db|-1p0-------------6p0-------------|-1p0-------------3---2---1--|
Ab|-1p0-0-0-0-0-0-0-6p0-0-0-0-0-0-0-|-1p0-0-0-0-0-0-0-3---2---1--|
Db|-1p0-0-0-0-0-0-0-6p0-0-0-0-0-0-0-|-1p0-0-0-0-0-0-0-3---2---1--|
        * * * * * *     * * * * * *       * * * * * *
eb|----------|-----------|
Bb|----------|-----------|
Gb|-5--------|-4----3----|
Db|-3--------|-2----1----|
Ab|-3--------|-2----1----|
Db|-3--------|-2----1----|

eb|---------------------------------|----------------------------|
Bb|---------------------------------|----------------------------|
Gb|---------------------------------|----------------------------|
Db|-1p0-------------6p0-------------|-1p0-------------3---2---1--|
Ab|-1p0-0-0-0-0-0-0-6p0-0-0-0-0-0-0-|-1p0-0-0-0-0-0-0-3---2---1--|
Db|-1p0-0-0-0-0-0-0-6p0-0-0-0-0-0-0-|-1p0-0-0-0-0-0-0-3---2---1--|
        * * * * * *     * * * * * *       * * * * * *
eb|----------|-----------|
Bb|----------|-----------|
Gb|-5--------|-4----3----|
Db|-3--------|-2----1----|
Ab|-3--------|-2----1----|
Db|-3--------|-2----1----|



Instrumental Part(Before the Instrumental Part starts, Tremonti plays a Db5 Chord
0-0-0-x-x-x for 2 bars):

Part A:
(PM throughout for 4 bars)
eb|--------------------------------|----------------------------|
Bb|--------------------------------|----------------------------|
Gb|--------------------------------|----------------------------|
Db|---------------3----------------|----------------------------| x2
Ab|---------5-3-------------5-3----|---------5-3----------------|
Db|-0-0-0-0-----0---0-0-0-0-----5--|-0-0-0-0-----0-3--0-3-1--0-1|


eb|--------------------------------|-------------------------------|
Bb|--------------------------------|-------------------------------|
Gb|--------------------------------|-------------------------------|
Db|--------------------------------|-------------------------------| x2
Ab|---------5p3---6---------5---6--|---------5-3---6-6-5-3---------|
Db|-0-0-0-0-----4---0-0-0-0---4----|-0-0-0-0-----4---------1--0-1--|
    * * * *     *   * * * *   *      * * * *     *

Part B:

   Guitar1:
eb|--------------------------------|------------------------------|
Bb|--------------------------------|------------------------------|
Gb|---------5-5-5-5--------5-5-5-5-|-------5-5-5-5----5/7-7-7-7-7-|
Db|--------------------------------|------------------------------|
Ab|---------3-3-3-3--------3-3-3-3-|-------3-3-3-3----3/5-5-5-5-5-|
Db|-0-0-0-0----------0-0-0---------|-0-0-0----------0-------------|
  |Guitar2:                        |                              | x4
eb|--------------------------------|------------------------------|
Bb|--------------------------------|------------------------------|
Gb|-11~~~~~~~~~~~~~~~~~~~~~~~~~~~~~~~~~~~~~~~~~~~~----------------|
Db|--------------------------------|------------------------------|
Ab|-9~~~~~~~~~~~~~~~~~~~~~~~~~~~~~~~~~~~~~~~~~~~~~----------------|
Db|--------------------------------|------------------------------|




Guitar Solo(Guitar2 plays the Chorus):

eb|-------------------------------------------------|-----------------------|
Bb|-------15-------15-------15-------15-------15----|-12~~12----------------|
Gb|-12/14----14\13----13\12----12/13----13/14----14-|--------11-14-11-------|
Db|-------------------------------------------------|-----------------15~~14|
Ab|-------------------------------------------------|-----------------------|
Db|-------------------------------------------------|-----------------------|

eb|-15-1513---15-1513---15-1513---15-1513---13b-13~~|
Bb|--------15--------15--------15--------15---------|
Gb|-------------------------------------------------|
Db|-------------------------------------------------|
Ab|-------------------------------------------------|
Db|-------------------------------------------------|

eb|----15-------------------------------------------|
Bb|-15----15-13-15-13----------15-------------------|
Gb|-------------------14-12-14----12-13-14-13-12-14-|
Db|-------------------------------------------------|
Ab|-------------------------------------------------|
Db|-------------------------------------------------|

eb|-------------------------------------------------|
Bb|-------------------------------------------------|
Gb|141312--1213141312--1213141312--1213141312--1213-|
Db|------15----------15----------15----------15-----|
Ab|-------------------------------------------------|
Db|-------------------------------------------------|

eb|-------------------------------------------------|
Bb|------------------------------------18-----------|
Gb|151413--1314161514--1415171615--1517--1715--1517-|
Db|------15----------16----------17----------17-----|
Ab|-------------------------------------------------|
Db|-------------------------------------------------|

eb|-------------15-17-15-18b~~~~~~1715--|-----15-----15-----15-----15-------|
Bb|-------15-18-----------------------18|-18b----18b----18b----18b----18br~~|
Gb|-14-17-------------------------------|-----------------------------------|
Db|-------------------------------------|-----------------------------------|
Ab|-------------------------------------|-----------------------------------|
Db|-------------------------------------|-----------------------------------|

eb|-17----15-17-15----------------------------------|
Bb|----18----------18-15----15-18-15----15-18-15----|
Gb|----------------------17----------17----------17-|
Db|-------------------------------------------------|
Ab|-------------------------------------------------|
Db|-------------------------------------------------|

eb|-------15-17-15----------------------------------|
Bb|-15-18----------18-15----15-18-15----15-18-15-18-|
Gb|----------------------17----------17-------------|
Db|-------------------------------------------------|
Ab|-------------------------------------------------|
Db|-------------------------------------------------|

eb|------------------------------------------|
Bb|-18br18~~-15-18-15------------------------|
Gb|-------------------17-17br---14--17-14-17-|
Db|--------------------------17--------------|
Ab|------------------------------------------|
Db|------------------------------------------|

eb|---------------------------------------|
Bb|---------------------------------------|
Gb|---------------14-17-------------------|
Db|-17br---15-17b-------17br--15-17br15~~-|
Ab|-----17------------------17------------|
Db|---------------------------------------|




Chorus: like 2nd time




Outro:

eb|--------------------------------------|
Bb|--------------------------------------|
Gb|--------------------------------------|
Db|--------------------------------------| x2
Ab|--------------------------------------|
Db|-0000----0000----0000----000000000000-|

eb|--------------------------------|-------------------------------|
Bb|--------------------------------|-------------------------------|
Gb|--------------------------------|-------------------------------|
Db|--------------------------------|-------------------------------| x2
Ab|---------5p3---6---------5---6--|---------5-3---6-6-5-3---------|
Db|-0-0-0-0-----4---0-0-0-0---4----|-0-0-0-0-----4---------1--0-1--|
    * * * *     *   * * * *   *      * * * *     *
eb|-----------------------------|-------|-|
Bb|-----------------------------|-------|-|
Gb|-----------------------------|-------|-|
Db|-----------------------------|-------|-|
Ab|-6-5-3---------6-5-3---------|-------|-|
Db|-------1--0-1--------1--0-1--|-0-----|-|




************************************

| /   slide up
| \   slide down
| h   hammer-on
| p   pull-off
| ~   vibrato
| +   harmonic
| x   Mute note
| b   Bend
| pb  Pre-bend
| br  Bend release
| pbr Pre-bend release
| brb Bend release bend

************************************





Comments


Popular Mark Tremonti tabs & chords
All That I Got Tabs
Brains Intro Tabs
Decay Tabs
Guitar Asylum Riff Intro Tabs
So Youre Afraid Tabs
So Youre Afraid 2 Tabs
The Things Ive Seen Tabs
The Things Ive Seen 1 Tabs
You Waste Your Time Tabs
You Waste Your Time 1 Tabs


Song lyrics



↑ Back to top | Tablatures and chords are parodies/interpretations of the original songs. You may use it for private study, scholarship, research or language learning purposes only
© 2014 AZChords.com Contact us | Privacy policy | DMCA | Add/correct tabs | Request tabs | Top 50 tabs