>
 >
Proof

Proof Guitar Tabs

Mark Tremonti - Proof chords, tabs, tablatures, lyrics

Guitar lessons | Add/correct | Request | Top 50 tabs Artists:  A B C D E F G H I J K L M N O P Q R S T U V W X Y Z 0-9

Proof Guitar Tabs – Mark Tremonti

CD, Sheet music, Poster

Do you like Proof? Share with your friends now
Tabs
Mark Tremonti - Proof

Nice slower number from "All I Was" record. The extended solo is tabbed 
on this so use the link below to compare. Please rate/comment




Main Riff (Semi-Clean Tone) - 2 Guitars

C#|--0----0---0-0-0-0---0-0-0-0-|-0----0---0-0-0-0---0-0-0-0-|
G#|--3----3---3-3-3-3---3-3-3-3-|-3----3---3-3-3-3---3-3-3-3-|
E |--3----3---3-3-3-3---3-3-3-3-|-2----2---2-2-2-2---2-2-2-2-|
B |--3----3---3-3-3-3---3-3-3-3-|-0----0---0-0-0-0---0-0-0-0-|
F#|--1----1---1-1-1-1---1-1-1-1-|-0----0---0-0-0-0---0-0-0-0-|
B |-----------------------------|-0----0---0-0-0-0---0-0-0-0-|
1. Hide it like another shame
2. Reach inside and tear away
3. Try to find another goal,
4. Feed it like another soul


|-0----0---0-0-0-0---0-0-0-0-|-0----0---0-0-0-0---0-0-0-0-|
|-5----5---5-5-5-5---5-5-5-6-|-6----6---6-6-5-5---5-5-5-3-|
|-5----5---5-5-5-5---5-5-5-5-|-5----5---5-5-5-5---5-5-5-3-|
|-5----5---5-5-5-5---5-5-5-5-|-5----5---5-5-5-5---5-5-5-3-|
|-3----3---3-3-3-3---3-3-3-3-|-3----3---3-3-3-3---3-3-3-3-|
|----------------------------|----------------------------|
1. So we may start again
2. You pray now for the end
3. while others are erased
4. Oh 





Prechorus Bit (0:35) - Guitar 2, with Main Riff played on Guitar 1

|-------8--------|-----------|---12-----------|-----------|
|-----6----------|-----------|-----13---------|-----------|
|---7------------|-----------|-------12-------|-----------|
|----------------|-----------|----------------|-----------|
|----------------|-----------|----------------|-----------|
|----------------|-----------|----------------|-----------|

|-------8--------|-----------|-------10------|-12~---------|
|-----6----------|-----------|-----10---10---|----13~------|
|---7------------|-----------|---7-----------|-------12~---|
|----------------|-----------|---------------|-------------|
|----------------|-----------|---------------|-------------|
|----------------|-----------|---------------|-------------|



Chorus - 2x, endings change
C#|-----------------------------|----------------------------|
G#|-----------------------------|----------------------------|
E |--3----3---3-3-3-3---3-3-3-x-|----------------------------|
B |--3----3---3-3-3-3---3-3-3-x-|-3----3---3-3-3-3---3-3-----|
F#|--1----1---1-1-1-1---1-1-1-x-|-3----3---3-3-3-3---3-3-----|
B |-----------------------------|-3----3---3-3-3-3---3-3-3\2-|

    "Lost         Is the proof now"
    "Gone         Is our way out"


first ending
|----------------------------|----------------------------|
|----------------------------|----------------------------|
|----------------------------|-5----5---5-5-5-5---9-7-7-x-|
|-0----0---0-0-0-0---0-0-0-0-|-5----5---5-5-5-5---------x-|
|-0----0---0-0-0-0---0-0-0-0-|-3----3---3-3-3-3---7-5-5-x-|
|-0----0---0-0-0-0---0-0-0-0-|----------------------------|
"Wasted all again"


2nd ending
|----------------------------|-------------------|
|----------------------------|-------------------|
|----------------------------|-------------------|
|-0----0---0-0-0-0--0--0--0--|-5-----------------|
|-0----0---0-0-0-0--0--0--0--|-3-----------------|
|-0----0---0-0-0-0--0--0--0--|-------------------|
                    PM PM PM
"Time and time again"





Play Verse Again, Lyrics:

"Mourn it like another gone
Another passed away
Know that we have just begun,
to forge a better day
Open like another door
It's feeling right again
Sold it like another soul, oh"



(2:12) Play Chorus Again with same lyrics, but ending becomes:

|----------------------------|-------------------------------|
|----------------------------|-------------------------------|
|----------------------------|-5----5---5-5-5-5---13-11-11-9-|
|-0----0---0-0-0-0---0-0-0-0-|-5----5---5-5-5-5--------------|
|-0----0---0-0-0-0---0-0-0-0-|-3----3---3-3-3-3---11--9--9-7-|
|-0----0---0-0-0-0---0-0-0-0-|-------------------------------|


Repeat Chorus but don't PM notes in second ending, play it like this:

|----------------------------|-------------------|
|----------------------------|-------------------|
|----------------------------|-5-----------------|
|-0----0---0-0-0-0---0---0-0-|-5-----------------|
|-0----0---0-0-0-0---0---0-0-|-3-----------------|
|-0----0---0-0-0-0---0---0-0-|-------------------|




Fingerpicking Bridge (first beat is from previous bar)

|-------------------------|-------------------|-----------------------|
|-6-6--5p3-5------3-------|-1---------------6-|-6--5p3-5------3-------|
|-------------0h2-------0-|-----2-2----(2p0)--|-----------0h2-------0-|
|-------------------------|-------------------|-----------------------|
|-----------------1-1-1p0-|-------------------|---------------1-1-1p0-|
|-0-0---------------------|-3-3-3-0-0-0-0---0-|-0---------------------|

|-------------------|
|-1-----3/5-3-----6-|
|-------------2-----|  note in () is a ghost note, meaning not picked
|-------------------|
|-------------------|
|-3-3-3p0-------0-0-|




(3:16) Solo - starts in last bar of bridge

|-15b17--b17--b17-------b17r__15-13-----------------------12--------|
|---------------------------|------15-13--15b17-b17-15-13-15b17-----|
|---------------------------|-----------15------------------------0-|
|---------------------------|---------------------------------------|
|---------------------------|---------------------------------------|
|---------------------------|---------------------------------------|

|------10h13p10--10-------------10h13p10------------------------|
|-10h13--------13-----------------------13p10--10---------------|
|--------------------12-12-12-12-------------13--13p12-13p12p10-|
|---------------------------------------------------------------|
|---------------------------------------------------------------|
|---------------------------------------------------------------|

|------------------------------------------|
|------------------------------------------|
|-12b14r-10--------------------------------|
|----------12-12p10h12-12-12-12SH-12PH~~~\-|
|------------------------------------------|
|------------------------------------------|

|---------------------------------------------------------------------------|
|---------------------------------------------------------------------------|
|9h10p9--------9h10p9--------9h12p9--------9h10p9--------9h12p9--------9h10-|
|------12p10h12------12p10h12------12p10h12------12p10h12------12p10h12-----|
|---------------------------------------------------------------------------|
|---------------------------------------------------------------------------|

|------------10-8h10-9h11-10h12-13p12p10----------------------|
|----10-11-13---------------------------13--------------------|
|-12--------------------------------------12/14\12-10-12p10p9-|
|-------------------------------------------------------------|
|-------------------------------------------------------------|
|-------------------------------------------------------------|

|-------------18------22--22\-------------|-------------------
|-10-13p10-----------------------10-13p10-|-------------------
|----------/15--15-/19--19----------------|-12b14r-10---10----
|-----------------------------------------|----------12---12--
|-----------------------------------------|-------------------
|-----------------------------------------|-------------------

  tremelo picking/wah
----------------------------------------------------------------|
-----------------------------------------------------------15~~~|
-13--------------12--------------17-----15-----14h15------------|
---12-12-15-12-12--12-12-15-12-12--12-12--12-12-----12-15-------|
----------------------------------------------------------------|
----------------------------------------------------------------|
last bar is 6 beats, including the end of the previous line




Play Chorus, with guitar 2 playing a variation of the prechorus notes




Ending (repeated with fade out): 

Guitar 1
|------------------------------|------------------------|
|------------------------------|------------------------|
|-10-10--9-9-------------------|------------------------|
|-----------------8------------|-3-------------0--------|
|-8--8---7-7--0-0-8----0-0-----|-3---3-3-------0---0-0--|
|-------------0-0-8----0-0-0h2-|-3---3-3-2b3r2-0---0-0--|
              PM       PM            PM          PM

Harmony Part:
|------------------------------|------------------------|
|------------------------------|------------------------|
|-14-14-12-12------------------|------------------------|
|-----------------8------------|-3-------------0--------|
|-12-12-10-10-0-0-8----0-0-----|-3---3-3-------0---0-0--|
|-------------0-0-8----0-0-0h2-|-3---3-3-2b3r2-0---0-0--|



KEY
************************************

| /   slide up
| \   slide down
| h   hammer-on
| p   pull-off
| ~   vibrato
| SH  slight pinch harmonic
| PH  pinch harmonic
| x   Mute note
| b   Bend
| r   Bend release

************************************





Comments


Popular Mark Tremonti tabs & chords
All I Was Tabs
All I Was Intro Tabs
Doesnt Matter Tabs
Leave It Alone Tabs
New Way Out Tabs
So Youre Afraid 1 Tabs
The Things Ive Seen Tabs
The Things Ive Seen 1 Tabs
You Waste Your Time 1 Tabs
New Way Out Ukulele


Song lyrics



↑ Back to top | Tablatures and chords are parodies/interpretations of the original songs. You may use it for private study, scholarship, research or language learning purposes only
© 2014 AZChords.com Contact us | Privacy policy | DMCA | Add/correct tabs | Request tabs | Top 50 tabs