>
 >
Leave It Alone

Leave It Alone Guitar Tabs

Mark Tremonti - Leave It Alone chords, tabs, tablatures, lyrics

Guitar lessons | Add/correct | Request | Top 50 tabs Artists:  A B C D E F G H I J K L M N O P Q R S T U V W X Y Z 0-9

Leave It Alone Guitar Tabs – Mark Tremonti

CD, Sheet music, Poster

Do you like Leave It Alone? Share with your friends now
Tabs
-----------------------------------------------------------------------------
                                                  LEAVE IT ALONE - Tremonti
-----------------------------------------------------------------------------

This tab isn't perfect but I'd like to think that it is pretty close to it.
I have listened to the song many times to get this as accurate as possible.

Tuning: Drop B or B F# B E G# C#

Intro: (There is a sustained B note for the 17 seconds)

|--------------------------------------------------------------------------|
|--------------------------------------------------------------------------|
|--------------------------------------------------------------------------|
|-----0h1p0-0-0h1p0---0h1p0-0-0h1p0-----0h1p0-0-0h1p0---0h1p0-0-0h1p0------|
|-------------------3---------------0-0---------------3---------------0-0--| 
|-15\----------------------------------------------------------------------|

|--------------------------------------------------------------------------|
|--------------------------------------------------------------------------|
|--------------------------------------------------------------------------|
|-0h1p0-0-0h1p0---0h1p0-0-0h1p0-----0h1p0-0-0h1p0------0h1p0-0-0h1p0-------|
|--------------3ph--------------0-0---------------3phb---------------0-0---|
|------------------------------------------------------------------------0~|

Verse 1:

|--------------------------------------------------------------------------|
|-------------------------------------2------------------------------------|
|-----------5-5-5-555-3-3-3-----------3------------10-10-10---9-9-9--------|
|-----------5-5-5-555-3-3-3---0-3-2-0---x-3-3-2-0--x--x--x----x-x-x--------|
|-----------3-3-3-333-1-1-1---0-3-2-0---x-3-3-2-0--8--8--8----7-7-7--------|
|-----------------------------0-3-2-0---x-3-3-2-0--------------------------|

|--------------------------------------------------------------------------|
|-------------------------------------2------------------------------------|
|-----------5-5-5-555-3-3-3-----------3------------10-10-10---9-9-9--------|
|-----------5-5-5-555-3-3-3---0-3-2-0---x-3-3-2-0--x--x--x----x-x-x--------|
|-----------3-3-3-333-1-1-1---0-3-2-0---x-3-3-2-0--8--8--8----7-7-7--------|
|-----------------------------0-3-2-0---x-3-3-2-0--------------------------|

|--------------------------------------------------------------------------|
|-------------------------------------2------------------------------------|
|-----------5-5-5-555-3-3-3-----------3------------10-10-10---9-9-9--------|
|-----------5-5-5-555-3-3-3---0-3-2-0---x-3-3-2-0--x--x--x----x-x-x--------|
|-----------3-3-3-333-1-1-1---0-3-2-0---x-3-3-2-0--8--8--8----7-7-7--------|
|-----------------------------0-3-2-0---x-3-3-2-0--------------------------|

|--------------------------------------------------------------------------|
|--------------------------------------------------------------------------|
|-----------5-5-5-555-3~~~~~~----------------------------------------------|
|-----------5-5-5-555-3~~~~~~-\\\\\\---------------------------------------|
|-----------3-3-3-333-1~~~~~~-\\\\\\---------------------------------------|
|-----------------------------\\\\\\---------------------------------------|

Chorus:

|--------------------------------------------------------------------------|
|--------------------------------------------------------------------------|
|----------7-7-7-7--7-7-7-7--6-6-6-6---------------------------------------|
|-2-2-2-2--5-5-4-4--7-7-7-7--7-7-7-7--(x2)--12-12-12--121212--10~~~~~~-----|
|-2-2-2-2--5-5-4-4--5-5-5-5--4-4-4-4--------10-10-10--101010--10~~~~~~-----|
|-2-2-2-2--5-5-4-4--0-0-0-0-----------------10-10-10--101010--8-~~~~~~-----|

|--------------------------------------------------------------------------|
|--------------------------------------------------------------------------|
|--------------------------------------------------------------------------|
|-\\\\\\-------------------------------------------------------------------|
|-\\\\\\-------------------------------------------------------------------|
|-\\\\\\-------------------------------------------------------------------|

Pre-Verse:

|--------------------------------------------------------------------------|
|--------------------------------------------------------------------------|
|--------------------------------------------------------------------------|
|---0h1p0-0-0h1p0---0h1p0-0-0h1p0-----0h1p0-0-0h1p0------0h1p0-0-0h1p0-----|
|-----------------3---------------0-0---------------3ph----------------0-0-|
|--------------------------------------------------------------------------|

Verse 2:

|--------------------------------------------------------------------------|
|-------------------------------------2------------------------------------|
|-----------5-5-5-555-3-3-3-----------3------------10-10-10---9-9-9--------|
|-----------5-5-5-555-3-3-3---0-3-2-0---x-3-3-2-0--x--x--x----x-x-x--------|
|-----------3-3-3-333-1-1-1---0-3-2-0---x-3-3-2-0--8--8--8----7-7-7--------|
|-----------------------------0-3-2-0---x-3-3-2-0--------------------------|

|--------------------------------------------------------------------------|
|-------------------------------------2------------------------------------|
|-----------5-5-5-555-3-3-3-----------3------------10-10-10---9-9-9--------|
|-----------5-5-5-555-3-3-3---0-3-2-0---x-3-3-2-0--x--x--x----x-x-x--------|
|-----------3-3-3-333-1-1-1---0-3-2-0---x-3-3-2-0--8--8--8----7-7-7--------|
|-----------------------------0-3-2-0---x-3-3-2-0--------------------------|

|--------------------------------------------------------------------------|
|-------------------------------------2------------------------------------|
|-----------5-5-5-555-3-3-3-----------3------------10-10-10---9-9-9--------|
|-----------5-5-5-555-3-3-3---0-3-2-0---x-3-3-2-0--x--x--x----x-x-x--------|
|-----------3-3-3-333-1-1-1---0-3-2-0---x-3-3-2-0--8--8--8----7-7-7--------|
|-----------------------------0-3-2-0---x-3-3-2-0--------------------------|

|--------------------------------------------------------------------------|
|--------------------------------------------------------------------------|
|-----------5-5-5-555-3~~~~~~----------------------------------------------|
|-----------5-5-5-555-3~~~~~~-\\\\\\---------------------------------------|
|-----------3-3-3-333-1~~~~~~-\\\\\\---------------------------------------|
|-----------------------------\\\\\\---------------------------------------|

Chorus:

|--------------------------------------------------------------------------|
|--------------------------------------------------------------------------|
|----------7-7-7-7--7-7-7-7--6-6-6-6---------------------------------------|
|-2-2-2-2--5-5-4-4--7-7-7-7--7-7-7-7--(x4)--12-12-12--121212--10~~~~~~-----|
|-2-2-2-2--5-5-4-4--5-5-5-5--4-4-4-4--------10-10-10--101010--10~~~~~~-----|
|-2-2-2-2--5-5-4-4--0-0-0-0-----------------10-10-10--101010--8-~~~~~~-----|

Bridge:

|--------------------------------------------------------------------------|
|--------------------------------------------------------------------------|
|-----0-------0------0-----0--------0----------0--------0-------0----------|
|---12-12---11-11---4-4---4-4-----14-14------14-14----12-12---11-11--------|
|--9-----9-9-----9-5---5-5---5--12-----12--12-----12-9-----9-9-----9--(x2)-|
|-9-------9-------0-----0-----11---------11---------9-------9--------------|

Solo:

|------------------------------------------|------9b10r9-----------------------------------|
|-----------------------12------10\7-------|-5/10--------10--------------------------------|
|---7-9-11r9-11b14--r11----11--------9--p7-|----------------11p9-6b7r6---------------------|
|-9----------------------------------------|---------------------------7-4-----------------|
|------------------------------------------|--------------------------------7--------------|
|------------------------------------------|-----------------------------------7b9r7-------|


|--------------------------------------5-----------------------------------|
|---------------------------------8----5---10------------------------------|
|-9/11--h14p11\9\7------------7-9-7--------9-b11r9b11v-v-v-----------------|
|------------------9-7-9--7/9----------------------------------------------|
|--------------------------------------------------------------------------|
|--------------------------------------------------------------------------|

|-----------------------------------------|
|-22--------------------------------------|
|-21b23-21b23r21p19-21-21b23r21b23r21hp19-|
|-----------------------------------------|
|-----------------------------------------|
|-----------------------------------------|

|----14h17p14----14h17p14----14h17p14----14h19p14----14h19p14----14h19p14--|
|-17----------17----------17----------17----------17----------17-----------|
|--------------------------------------------------------------------------|
|--------------------------------------------------------------------------|
|--------------------------------------------------------------------------|
|--------------------------------------------------------------------------|

|-------------------------19h21p19----19-21-22-21b22r21p19-----------------|
|----19h21p19----19-21-22----------22----------------------22p19----19-22--|
|-21----------21-------------------------------------------------21--------|
|--------------------------------------------------------------------------|
|--------------------------------------------------------------------------|
|--------------------------------------------------------------------------|

|--------------------------------------------------------------------------|
|--------------------------------------15----15------17------14------15----|
|-21b23r21p19----19---------------9/14----14------14------14------14-------|
|-------------21----21p19--------------------------------------------------|
|-------------------------21/0---------------------------------------------|
|--------------------------------------------------------------------------|

|---------------------------------------------------15------17--\0---------|
|-----14----15--------15----15------17------19-----------------------------|
|-14--16b18----14--14----14------14------14------14------14----------------|
|--------------------------------------------------------------------------|
|--------------------------------------------------------------------------|
|--------------------------------------------------------------------------|

|----------------------------19-22b24-22b24--r22p21-22--21-22-21-----------|
|----------------------19-22-------------------------------------22--------|
|----------------19-21----------------------------------------------21-----|
|----------19-21-----------------------------------------------------------|
|-19-19-21-----------------------------------------------------------------|
|--------------------------------------------------------------------------|

Chorus:

|--------------------------------------------------------------------------|
|--------------------------------------------------------------------------|
|----------7-7-7-7--7-7-7-7--6-6-6-6-----------------7-7-7-7--7-7-7-7------|
|-2-2-2-2--5-5-4-4--7-7-7-7--7-7-7-7--(x2)--2-2-2----5-5-4-4--7-7-7-7------|
|-2-2-2-2--5-5-4-4--5-5-5-5--4-4-4-4--------2-2-2----5-5-4-4--5-5-5-5------|
|-2-2-2-2--5-5-4-4--0-0-0-0-----------------2-2-2----5-5-4-4--0-0-0-0------|

|--------------------------------------------------------------------------|
|--------------------------------------------------------------------------|
|-6-6-6-6-----------7-7-7-7--7-7-7-7--6-6-6-6------------------------------|
|-7-7-7-7--2-2-2-2--5-5-4-4--7-7-7-7--7-7-7-7--12-12-12--121212--10~~~~~~--|
|-4-4-4-4--2-2-2-2--5-5-4-4--5-5-5-5--4-4-4-4--10-10-10--101010--10~~~~~~--|
|----------2-2-2-2--5-5-4-4--0-0-0-0-----------10-10-10--101010--8-~~~~~~--|

Outro:

|--------------------------------------------------------------------------|
|--------------------------------------------------------------------------|
|--------------------------------------------------------------------------|
|-\\\-0h1p0-0-0h1p0---0h1p0-0-0h1p0-----0h1p0-0-0h1p0---0h1p0-0-0h1p0------|
|-\\\---------------3---------------0-0---------------3---------------0-0--| 
|-\\\----------------------------------------------------------------------|

|--------------------------------------------------------------------------|
|--------------------------------------------------------------------------|
|--------------------------------------------------------------------------|
|-0h1p0-0-0h1p0---0h1p0-0-0h1p0-----0h1p0-0-0h1p0------0h1p0-0-0h1p0-1-0---|
|--------------3ph--------------0-0---------------3phb---------------1-0---|
|--------------------------------------------------------------------1-0---|







************************************

| /   slide up
| \   slide down
| h   hammer-on
| p   pull-off
| ~   vibrato
| +   harmonic
| x   Mute note
| b   Bend
| pb  Pre-bend
| br  Bend release
| pbr Pre-bend release
| brb Bend release bend
| phb Pinch harmonic bend


************************************





Comments


Popular Mark Tremonti tabs & chords
New Way Out Chords
Brains Tabs
Decay Tabs
Doesnt Matter Tabs
Giving Up Tabs
So Youre Afraid 1 Tabs
So Youre Afraid 2 Tabs
The Things Ive Seen Tabs
The Things Ive Seen 1 Tabs
You Waste Your Time Tabs


Song lyrics



↑ Back to top | Tablatures and chords are parodies/interpretations of the original songs. You may use it for private study, scholarship, research or language learning purposes only
© 2014 AZChords.com Contact us | Privacy policy | DMCA | Add/correct tabs | Request tabs | Top 50 tabs