>
 >
Giving Up

Giving Up Guitar Tabs

Mark Tremonti - Giving Up chords, tabs, tablatures, lyrics

Guitar lessons | Add/correct | Request | Top 50 tabs Artists:  A B C D E F G H I J K L M N O P Q R S T U V W X Y Z 0-9

Giving Up Guitar Tabs – Mark Tremonti

CD, Sheet music, Poster

Do you like Giving Up? Share with your friends now
Tabs
TREMONTI - GIVING UP

Tuning: Drop B
4/4 Time

Rate and comment please.
Sorry for my bad english.


Intro (Main Riff):

C#|--------------------------------|------------------------------|
G#|--------------------------------|------------------------------|
E |--5-----------------------------|--5---------------------------|
B |--5-4---0-3-0-1---0---0-12-13\0-|--5-4---0-3-0-1---0-----------|
F#|--3-4---0-3-0-1---0---0-12-13\0-|--3-4---0-3-0-1---0-----------|
B |----4---0-3-0-1---0---0-12-13\0-|----4---0-3-0-1---0---0-000000|
                                                            ******
                                                        |-------6-------|
C#|--------------------------------|--------------------------------------|
G#|--------------------------------|--------------------------------------|
E |--5-----------------------------|--5-----------------------------------|
B |--5-4---0-3-0-1---0---0-12-13\0-|--5-4---0-3-0-1---0-------------------|
F#|--3-4---0-3-0-1---0---0-12-13\0-|--3-4---0-3-0-1---0-------------------|
B |----4---0-3-0-1---0---0-12-13\0-|----4---0-3-0-1---0-0-0-0-2-3-2-0-2-3-|
                                                        * * * * * * * * *


Verse P1:

C#|-------|-----------|
G#|-------|-----------|
E |-------|-----------|
B |-0-----|--------1--| x2
F#|-0-----|---/3-2-1--|
B |-0-----|---/3-2-1--|
               * *


Verse P2: play whole Main Riff one time.



Pre Chorus:

   Guitar 1
C#|------------|------------|
G#|------------|------------|
E |------------|------------|
B |------------|------------|
F#|------------|------------|
B |-0----------|------------|
  |            |            |  x2
  |Guitar 2    |            |
C#|------------|------------|
G#|------------|------------|
E |-14~~~~~~~~~|-12~~~~~~~~~|
B |------------|------------|
F#|------------|------------|
B |------------|------------|



Chorus (Do a pick-slide before chorus kicks in):

C#|----------------------------------------------------|
G#|----------------------------------------------------|
E |--3-----------3--------3-----5--5--------5--5--5----|
B |--3-----------3--------3-----3--3--------3--3--3----|
F#|--1-----------1--------1-----3--3--------3--3--3----|
B |-----------------------------3--3--------3--3--3----|
                                                     
C#|----------------------------------------------------|
G#|----------------------------------------------------|
E |----------------------------------------------------|
B |--5-----------5--------5-----0--0--------0--0--0----|
F#|--5-----------5--------5-----0--0--------0--0--0----|
B |--5-----------5--------5-----0--0--------0--0--0----|
                                                     
C#|----------------------------------------------------|
G#|----------------------------------------------------|
E |--5-----------5--------5-----3--3--------3--3--3----|
B |--5-----------5--------5-----3--3--------3--3--3----|
F#|--3-----------3--------3-----1--1--------1--1--1----|
B |----------------------------------------------------|
                                                    
C#|----------------------------------------------------|
G#|----------------------------------------------------|
E |----------------------------------------------------|
B |--0-----------0--------0-----0--0--------0--0--0----|
F#|--0-----------0--------0-----0--0--------0--0--0----|
B |--0-----------0--------0-----0--0--------0--0--0----|

C#|----------------------------------------------------|
G#|----------------------------------------------------|
E |--3-----------3--------3-----5--5--------5--5--5----|
B |--3-----------3--------3-----3--3--------3--3--3----|
F#|--1-----------1--------1-----3--3--------3--3--3----|
B |-----------------------------3--3--------3--3--3----|
                                                     
C#|----------------------------------------------------|
G#|----------------------------------------------------|
E |----------------------------------------------------|
B |--5-----------5--------5-----0--0--------0--0--0----|
F#|--5-----------5--------5-----0--0--------0--0--0----|
B |--5-----------5--------5-----0--0--------0--0--0----|
                                              2/4 Time       
C#|------------------------------------------|---------|
G#|------------------------------------------|---------|
E |--5-----------5--------5-----3------------|---------|
B |--5-----------5--------5-----3------------|---------|
F#|--3-----------3--------3-----1------------|---------|
B |------------------------------------------|---------|



Main Riff: (Like first time)



Verse P1: (Like first time)



Verse P2: (Like first time)  



Pre Chorus 2: (Like first time)



Chorus 2: (Like first time)



Bridge P1:

   Guitar1
C#|---------------------------------------|---------------------------------|
G#|---------------------------------------|---------------------------------|
E |--10--------10---14---12---10---9------|---------------------------------|
B |--12--------12---12---12---12---12-----|-0-------------------------------|
F#|--0---------0----0----0----0----0------|-0-------------------------------|
B |--0---0-000-0--0-0--0-0--0-0--0-0--0-0-|-0--0-000-0-000-000-0-000-0-0000-|
         * ***    *    *    *    *    * *      * *** * *** *** * *** * ****
Play these 2 bars 4 times.


   Guitar2 adds every 4 beats this fill:
C#|-------------------------|-10\-----|
G#|----------10-11-10-11-13-|---------|
E |----10-12----------------|---------|
B |-------------------------|---------|
F#|-------------------------|---------|
B |-------------------------|---------|


Bridge P2:

C#|--------------------------|--------------------------|
G#|--------------------------|--------------------------|
E |-5----5---5-5-5-5---5-5-5-|-3----3---3-3-3-3---3-3-3-|
B |-5----5---5-5-5-5---5-5-5-|-3----3---3-3-3-3---3-3-3-|
F#|-3----3---3-3-3-3---3-3-3-|-1----1---1-1-1-1---1-1-1-|
B |--------------------------|--------------------------|

C#|---------------------------------------|---------------------------------|
G#|---------------------------------------|---------------------------------|
E |--10--------10---14---12---10---9------|---------------------------------|
B |--12--------12---12---12---12---12-----|-0-------------------------------|
F#|--0---------0----0----0----0----0------|-0-------------------------------|
B |--0---0-000-0--0-0--0-0--0-0--0-0--0-0-|-0--0-000-0-000-000-0-000-0-0000-|
         * ***    *    *    *    *    * *      * *** * *** *** * *** * ****
Play these 4 bars 2 times. Then:

C#|--------------------------|--------------------------|
G#|--------------------------|--------------------------|
E |-5----5---5-5-5-5---5-5-5-|-3----3---3-3-3-3---3-3-3-|
B |-5----5---5-5-5-5---5-5-5-|-3----3---3-3-3-3---3-3-3-|
F#|-3----3---3-3-3-3---3-3-3-|-1----1---1-1-1-1---1-1-1-|
B |--------------------------|--------------------------|



Pre Chorus 3:

   Guitar 1
C#|------------|------------|
G#|------------|------------|
E |------------|------------|
B |------------|------------|
F#|------------|------------|
B |-0----------|------------|
  |            |            |  x2
  |Guitar 2    |            |
C#|-5+---------|-8----------|
G#|-5+---------|-x----------|
E |------------|-5----------|
B |------------|------------|
F#|------------|------------|
B |------------|------------|



Chorus 3 (Do a pick-slide before chorus kicks in):

C#|----------------------------------------------------|
G#|----------------------------------------------------|
E |--3-----------3--------3-----5--5--------5--5--5----|
B |--3-----------3--------3-----3--3--------3--3--3----|
F#|--1-----------1--------1-----3--3--------3--3--3----|
B |-----------------------------3--3--------3--3--3----|
                                                     
C#|----------------------------------------------------|
G#|----------------------------------------------------|
E |----------------------------------------------------|
B |--5-----------5--------5-----0--0--------0--0--0----|
F#|--5-----------5--------5-----0--0--------0--0--0----|
B |--5-----------5--------5-----0--0--------0--0--0----|
                                                     
C#|----------------------------------------------------|
G#|----------------------------------------------------|
E |--5-----------5--------5-----3--3--------3--3--3----|
B |--5-----------5--------5-----3--3--------3--3--3----|
F#|--3-----------3--------3-----1--1--------1--1--1----|
B |----------------------------------------------------|
                                                    
C#|----------------------------------------------------|
G#|----------------------------------------------------|
E |----------------------------------------------------|
B |--0-----------0--------0-----0--0--------0--0--0----|
F#|--0-----------0--------0-----0--0--------0--0--0----|
B |--0-----------0--------0-----0--0--------0--0--0----|
Play these 4 bars 2 times.



Guitar Solo:

C#|-10-8------10-8------10-8------10-8-------10-8------10----------------|
G#|------10-9------10-9------10-9------10-9-------10-9----11b--10-8------|
E |-----------------------------------------------------------------10-7-|
B |----------------------------------------------------------------------|
F#|----------------------------------------------------------------------|
B |----------------------------------------------------------------------|
                                                 
                                           |-------6------|  |---3---|
C#|----------------------------------------------10-15-10-------------|
G#|-10-------10--13--10-------12--11b------10-13----------13-10-------|
E |-----12b--------------10br----------12-----------------------12-10-|
B |-------------------------------------------------------------------|
F#|-------------------------------------------------------------------|
B |-------------------------------------------------------------------|

C#|--------------------|
G#|------------13------|
E |------------12brb---|
B |-10--12~~~~---------|
F#|--------------------|
B |--------------------|

C#|-----------------------------------------------------------------|
G#|------10-15-13------10-15-13------10-15-13------10-15-13brb~~~~--|
E |-12b-----------12b-----------12b-----------12b-------------------|
B |-----------------------------------------------------------------|
F#|-----------------------------------------------------------------|
B |-----------------------------------------------------------------|

   legato picking
C#|--------101310--10--------------101310--------------------------|
G#|----1013------13--13101310--1013------1210--10------------------|
E |1012----------------------12--------------13--12101210--------10|
B |------------------------------------------------------12101112--|
F#|----------------------------------------------------------------|
B |----------------------------------------------------------------|

    |------6-------|
C#|----------------------------------------------|
G#|-10----------------------------------------18-|
E |---12-10-12-10----10----12-11~~---------------|
B |---------------12----12--------12-10~~-12~~---|
F#|----------------------------------------------|
B |----------------------------------------------|


C#|---------------------------------------------|
G#|-17br18----18-17br18---------171817--171817--|
E |--------17-----------19~~-19-------19------19|
B |---------------------------------------------|
F#|---------------------------------------------|
B |---------------------------------------------|

   legato picking           (hit 15th fret on the D-String to end the solo)
C#|---------------1718201817-----------------------------------------|
G#|-171817--171820----------201817--1718201817----------17-----------|
E |-------19----------------------19----------1917151719--191715-----|
B |-------------------------------------------------------------1917-|
F#|------------------------------------------------------------------|
B |------------------------------------------------------------------|



Outro P1: Play Chorus 3



Outro P2: Play Main Riff

Hit a B5-Chord to end the song: 00023-


************************************

| /   slide up
| \   slide down
| ~   vibrato
| +   harmonic
| x   Mute note
| b   Bend
| pb  Pre-bend
| br  Bend release
| pbr Pre-bend release
| brb Bend release bend

************************************





Comments


Popular Mark Tremonti tabs & chords
All I Was Intro Tabs
Brains Tabs
Decay Tabs
Doesnt Matter Tabs
Guitar Asylum Riff Intro Tabs
London Bridge Tabs
New Way Out Tabs
So Youre Afraid 2 Tabs
Wish You Well Tabs
New Way Out Ukulele


Song lyrics



↑ Back to top | Tablatures and chords are parodies/interpretations of the original songs. You may use it for private study, scholarship, research or language learning purposes only
© 2014 AZChords.com Contact us | Privacy policy | DMCA | Add/correct tabs | Request tabs | Top 50 tabs