» » »

Mark Ronson, Valerie Bass tabs (ver.1)

Artists:  A B C D E F G H I J K L M N O P Q R S T U V W X Y Z # 

Valerie Bass tabs (ver.1)

Mark Ronson Tabs
 Rating:
4.2/5 (5 votes)
Valerie lessons Tabs too difficult? Try these video lessons and learn fast
1
                heres a nice easy song :D didnt realise there wasnt a tab for it so i made one :D sorry 
theres some parts iv missed out on. but enjoy
stuart zender rules !!!!!!

normal tuning.

Main riff
|----------------|----------------|-----|
|----------------|----------------|-----|
|-6-x-6-x-6-x-66-|-6-x-6-x-6-x-66-|-6-7-|
|----------------|----------------|-----|
                                            repeat two riffs x heaps
|----------------|----------------|-----|
|----------------|----------------|-----|
|-8-x-8-x-8-x-88-|-8-x-8-x-8-x-88-|-8-7-|
|----------------|----------------|-----|

othere Riff
|----------------|----------------|
|-6-x-6-x-6-x-66-|-5-x-5-x-5-x-55-|  Repea this riff
|----------------|----------------|
|----------------|----------------|

interlude          repeat
|-------|----------------|---------|
|-5-6-7-|-8-x-8-x-8-x-88-|-8-6-5---|
|-------|----------------|-------8-|
|-------|----------------|---------|

then its just the matter of repeating those riffs.
and thats it

peace out beeatches!
            
Submit corrections

comments powered by Disqus
↑ Back to top | Mark Ronson Bass for Valerie. Lyrics for acoustic guitar and electric guitar. 1 Tablatures and chords are parodies/interpretations of the original songs. You may use it for private study, scholarship, research or language learning purposes only