» » »

Mark Ronson, Somebody To Love Me Tabs (ver.1)

Artists:  A B C D E F G H I J K L M N O P Q R S T U V W X Y Z # 

Somebody To Love Me Tabs (ver.1)

Mark Ronson Tabs
Rating:
5/5 (3 votes)
Somebody To Love Me lessons Tabs too difficult? Try these video lessons and learn fast
                
Mark Ronson & The Business INTL. feat Boy George


Am/C:

E|--0-----|
B|--1-----|
G|--2-----|
D|--2-----|
A|--3-----|
E|--x-----|




INTRO:   F#m / A / F#m / A /

CHORUS:

F#m
I don't wanna see you go, 
                    A
I want somebody to love me, 
 F#m
Why'd it take so long to know? 
		    A
I want somebody to love me, 
		       Bm
I want somebody to be nice,
			       D 
See the boy, I once was in my eyes,
			NC
Nobody's gonna save my life

VERSE 1:

Riff 1:

E|-------------------|-------------------|
B|-------------------|-------------------|
G|-------------------|-------------------|
D|--------------2----|-------------------|
A|-----4--2--0-------|-----4--2--0-------|
E|--2----------------|--2----------------|

(Play Riff 1)
	F#m
We are wicked men, 
Looking for our buckles to loosen, 
By the count of ten, 
I wanna see somebody human,

Play Riff 2:

E|-------------------|-------------------|
B|-------------------|-------------------|
G|-------------------|-------------------|
D|--------------2----|-------------------|
A|-----4--2--0-------|-----4--2--4-------|
E|--2----------------|--2----------------|

       F#m 
And I lost what it was, in the teenage dust of a downtown Romeo, 
In a couple of weeks, you can tell all the freaks, how you carried my body home 

BRIDGE:

Bm
But tonight, I crossed the line, 
 D
Dear Mr Lonely, how much do they know me? 
Bm
I could find lessons in life, 
 D
But, once you've earned it, you've already burned it 

CHORUS:

Play Riff 3:

E|-------------------|-------------------|
B|-------------------|-------------------|
G|-2-1---------------|-2-1---------------|
D|-----4---2---------|-----4---2---------|
A|-------4---2-4-0---|-------4---2-4-0---|
E|-----------------2-|-------------------|


F#m
I don't wanna see you go, 
		    A
I need somebody to love me, 
(Need somebody, oh)
F#M 
Why'd it take so long to know? 
		    A
I need somebody to love me, 
(Need somebody, oh) 
		       Bm
I want somebody to be nice,
			       D 
See the boy, I once was in my eyes,
			F#m 
Nobody's gonna save my life 

VERSE 2:

Play Riff 1

        F#m
Got my ticket man, and I'm looking for somebody to use it, 
I know we pretend, but one of these days we're gonna lose it, 

Play Riff 2
      
     F#m
And I once left town, when the leaves turn brown, 
With a couple of souvenirs, 
She was in my car, when we hit that wall, 
Yeah, you could of moved me to tears 

BRIDGE:

Bm
But tonight, I crossed the line, 
D
I used to know her, when my house was sober, 
Bm
I could find lessons in life, 
D
Over and over, is it really over? 

CHORUS:

Play Riff 3

F#m
I don't wanna see you go, 
		    A
I need somebody to love me, 
(Need somebody, oh) 
F#m
Why'd it take so long to know?
		    A
I need somebody to love me, 
(Need somebody, oh) 
		       Bm
I want somebody to be nice, 
			       D
See the boy, I once was in my eyes, 
			F#m
Nobody's gonna save my life 

Play Riff 4:

E|--------------------|---------------------|
B|--------------------|---------------------|
G|--------------------|---------------------|
D|-2-2-2--------------|-2-2-2---------------|
A|--------4-2-0-2-----|-------4-2-0-2-4-0---|
E|----------------2---|-------------------2-|

BRIDGE:

Bm
But tonight, I crossed the line, 
D
I used to know her, when my house was sober, 
Bm
I could find lessons in life, 
D
Over and over, is it really over? 


F#m
I don't wanna see you go, 
		    A
I want somebody to love me, 
(Need somebody, oh) 
F#m
Why'd it take so long to know? 
		    A
I want somebody to love me, 
(Need somebody, oh) 
		       Bm
Yeah, I want somebody nice, 
			       D    F F F F 
See the boy, I once was in my eyes	    


Play Riff 5 with the chords above it:

	Am/C			Am/C			Am/C		   D

E|--------------------|---------------------|---------------------|---------------------|
B|--------------------|---------------------|---------------------|---------------------|  
G|--------------------|---------------------|---------------------|---------------------|
D|---2-0-2-0-2-0------|---2-0-2-0-2-0-------|---2-0-2-0-2-0-------|---------------------|
A|-3-------------0-3--|-3--------------0-3--|-3--------------0-3--|-5-3-0---0-3-0-------|
E|--------------------|---------------------|---------------------|-------3-------------|

Repeat 3 times then end with :

	  D			D

E|--------------------|---------------------|
B|--------------------|---------------------|
G|--------------------|---------------------|
D|--------------------|---------------------|
A|-5-3-0---0-3-0------|-5-3-0---0-3-0-------|
E|-------3------------|-------3--------3----|
            
Submit corrections

comments powered by Disqus
↑ Back to top | Mark Ronson Tabs for Somebody To Love Me. Lyrics for acoustic guitar and electric guitar. Tablatures and chords are parodies/interpretations of the original songs. You may use it for private study, scholarship, research or language learning purposes only