» » »

Mark Ronson, Just Bass tabs (ver.1)

Artists:  A B C D E F G H I J K L M N O P Q R S T U V W X Y Z # 

Just Bass tabs (ver.1)

Mark Ronson Tabs
 Rating:
3.7/5 (6 votes)
Just lessons Tabs too difficult? Try these video lessons and learn fast
1
                tryed to find the tab for this song but there aint none:( so i made this :D (well tryed) 
if i missed some notes or if theres some odd parts:D enjoy tho:D
Stuart Zender rules !!

Normael tuning

Intro
|------------------------------------|--------------|
|-77----------------66---------------|-----5-3--5-7-|
|-------x-33-55-66--------x-33-55-66-|-3-5----------|
|----55----------------44------------|--------------|
                                                       two riff x2
|------------------------------------|--------------|
|-77----------------66---------------|-----5--------|
|-------x-33-55-66--------x-33-55-66-|-3-5---1--3-5-|
|----55----------------44------------|--------------|

Interlude
|-------------------------|
|-5--5------4-----1--3----|   abit Hard on the rythem
|------3-5----2-4---------|   of that riff
|----------------------1~-|

Drums kicks in
|--------------------|------------------|
|---------------7----|--------------7---|
|-3-5--5-6--7-9---8--|-3-5--5-6-------8-|
|--------------------|----------0-2-----|

main riff
|--------------|--------------|
|-77-----66----|-----5-3--5-7-|
|--------------|-3-5----------|
|----55-----44-|--------------|
                                 Two riffs x2
|--------------|--------------|
|-77-----66----|-----5--------|
|--------------|-3-5---1--3-5-|
|----55-----44-|--------------|

End of that riff
|----------------------|
|-5--5------4-----1--3-|
|------3-5----2-4------|
|----------------------|

Chorus
|-------------------|-------------------|
|-----1----44-3-1-3-|---------1---1-4-1-|
|-3-5---3-----------|-0-1-4-1-----------| x2
|-------------------|-------------------|

|--------------------|------------------|
|---------------7----|--------------7---|
|-3-5--5-6--7-9---8--|-3-5--5-6-------8-| x4
|--------------------|----------0-2-----|

main riff
|--------------|--------------|
|-77-----66----|-----5-3--5-7-|
|--------------|-3-5----------|
|----55-----44-|--------------|
                                 Two riffs x2
|--------------|--------------|
|-77-----66----|-----5--------|
|--------------|-3-5---1--3-5-|
|----55-----44-|--------------|

End of that riff
|----------------------|
|-5--5------4-----1--3-|
|------3-5----2-4------|
|----------------------|

Chorus
|-------------------|-------------------|
|-----1----44-3-1-3-|---------1---1-4-1-|
|-3-5---3-----------|-0-1-4-1-----------| x2
|-------------------|-------------------|

|--------------------|------------------|
|---------------7----|--------------7---|
|-3-5--5-6--7-9---8--|-3-5--5-6-------8-| x4
|--------------------|----------0-2-----|

Trumpet part
|-------------------|----------------|
|------1---44-3-1-3-|----------1-4-1-|
|-33-3---3----------|-11-1-4-1-------| x2
|-------------------|----------------|

bridge
|------9----------6---|-----9---7-77-----6---|-10/12\10----------------|
|---9-----------6-----|---9------------6-----|----------10h13p10-------|
|-7------7----4-----4-|-7-----7------4-----4-|-------------------12-10-|
|---------------------|----------------------|-------------------------|

|------------------------------------|--------------|
|-77----------------66---------------|-----5-3--5-7-|
|-------x-33-55-66--------x-33-55-66-|-3-5----------|
|----55----------------44------------|--------------|
                                                       two riff x3
|------------------------------------|--------------|
|-77----------------66---------------|-----5--------|
|-------x-33-55-66--------x-33-55-66-|-3-5---1--3-5-|
|----55----------------44------------|--------------|

Chorus
|-------------------|-------------------|
|-----1----44-3-1-3-|---------1---1-4-1-|
|-3-5---3-----------|-0-1-4-1-----------| x2
|-------------------|-------------------|

|--------------------|------------------|
|---------------7----|--------------7---|
|-3-5--5-6--7-9---8--|-3-5--5-6-------8-| x4
|--------------------|----------0-2-----|

outro
|---------------------------|
|-----1---44-3-1-3--7---6---|
|-3-5---3-------------7---6-| x4
|---------------------------|

|--------------------------------------------------|
|--------------------------------------------------|
|-33-33-3--33-33-3-33-33-3-33-33-3-33-33-3-33-33-3-|
|--------------------------------------------------|

|---------------------------|      |-5~-|
|-----1---44-3-1-3--7---6---|      |----|
|-3-5---3-------------7---6-| x12  |----|
|---------------------------|      |----|

And thats it! :D
any parts you didnt like leave a comment please :D l8er
            
Submit corrections

comments powered by Disqus
↑ Back to top | Mark Ronson Bass for Just. Lyrics for acoustic guitar and electric guitar. 1 Tablatures and chords are parodies/interpretations of the original songs. You may use it for private study, scholarship, research or language learning purposes only