>
 >
Tiger Uppercut

Tiger Uppercut Guitar Tabs

Mark My Words - Tiger Uppercut chords, tabs, tablatures, lyrics

Guitar lessons | Add/correct | Request | Top 50 tabs Artists:  A B C D E F G H I J K L M N O P Q R S T U V W X Y Z 0-9

Tiger Uppercut Guitar Tabs – Mark My Words

CD, Sheet music, Poster

Do you like Tiger Uppercut? Share with your friends now
Tabs
intro
D#----------------------------------------------------------|
A#----------------------------------------------------------|
F#----------------------------------------------------------|
C#-4----------------7--2--7-5--4----------------5-5--4--5---|
G#-4----------------7--2--7-5--4----------------3-3--2--3-5-|
C#-4-4444-4444-4444-7--2--7-5--4-4444-4444-4444-----------5-|
PM   .... .... ....              .... .... ....


----------------------------------------------------------------|
----------------------------------------------------------------|
----------------------------------------------------------------|
----------------------------------------------------5-5--4--5---|
---------------------7--2--7-5----------------------3-3--2--3-5-|
-4444-4444-4444-4444-7--2--7-5--4444-4444-4444-4444-----------5-|
PM... .... .... ....            .... .... .... ....


...shot'
--------------------------------------------------------------------|
--------------------------------------------------------------------|
--------------------------------------------------------------------|
-4---------------4--5--5---------4----------------------------------|
-4---------------4--3--5---------4----------------------------------|
-4--4-4-4-4-4444-4-----5--5-5555-4-4-4-4-4-4444-7777-5555-2222-5555-|
PM  . . . . ....          . ....   . . . . ....

--------------------------------------------------------------------|
--------------------------------------------------------------------|
--------------------------------------------------------------------|
-4---------------4--2--5---------4----------------------------------|
-4---------------4--2--5---------4----------------------------------|
-4--4-4-4-4-4444-4--2--5--5-5555-4-4-4-4-4-4444-7777-5555-2222-5555-|
PM  . . . . ....          . ....   . . . . ....


..take another shot'
--------------------------------------------------------------------|
--------------------------------------------------------------------|
--------------------------------------------------------------------|
-----------------5--------------------------------------------------|
-4-----4-----4---3-4---4-----------5---5----------------------------|
-4-4-4-4-4-4-4-4---4-4-4-4-4-5-7-9-5-5-5-5-5555-2222-4444-5555-2222-|
PM . .   . .   .     .   . .         .   . ....


--------------------------------------------------------------------|
--------------------------------------------------------------------|
--------------------------------------------------------------------|
-----------------5--------------------------------------------------|
-4-----4-----4---3-4---4-----------5---5----------------------------|
-4-4-4-4-4-4-4-4---4-4-4-4-4-5-7-9-5-5-5-5-5555-2222-4444-5555-2222-|
PM . .   . .   .     .   . .         .   . ....


'so down...
----------------------------------|
----------------------------------|
----------------------------------|
----------------------5-5-5-------|
-4-4-5-4--------4-2-4-3-3-3-5--5--|
-4-4-5-4--------4-2-4-------5--5--|

--------------------------------------------------------------------|
-------------------13-----------------------------------------------|
-------------12-11----12-9/11---------------------------------------|
--------------------------------------5-5-5-------------------------|
-4-4-5-4--9---------------------4-2-4-3-3-3-7--7--7---7-------------|
-4-4-5-4------------------------4-2-4-------7--7--7-7-7-7-5555-5555-|

----------------------------------|
----------------------------------|
----------------------------------|
----------------------5-5-5-------|
-4-4-5-4--------4-2-4-3-3-3-2--2--|
-4-4-5-4--------4-2-4-------2--2--|


--------------------------------------------------------------------|
-------------------13-----------------------------------------------|
-------------12-11----12-9/11---------------------------------------|
--------------------------------------5-5-5-------------------------|
-4-4-5-4--9---------------------4-2-4-3-3-3-7--7--7---7-------------|
-4-4-5-4------------------------4-2-4-------7--7--7-7-7-7-5555-5555-|


bidge
----------------------------------------------------------------------|
----------------------------------------------------------------------|
----------------------------------------------------------------------|
-4---------------4--5--5---------4------------------------------------|
-4---------------4--3--5---------4------------------------------------|
-4--4-4-4-4-4444-4-----5--5-5555-4-4-4-4-4-4444-4-7777-5555-2222-5555-|


verse two
----------------------------------------------------------------------|
----------------------------------------------------------------------|
----------------------------------------------------------------------|
-4---------------4--5--5---------4------------------------------------|
-4---------------4--3--5---------4------------------------------------|
-4--4-4-4-4-4444-4-----5--5-5555-4-4-4-4-4-4444-4-7777-5555-2222-5555-|


----------------------------------------------------------------------|
----------------------------------------------------------------------|
----------------------------------------------------------------------|
-4---------------4--2--5---------4------------------------------------|
-4---------------4--2--5---------4------------------------------------|
-4--4-4-4-4-4444-4--2--5--5-5555-4-4-4-4-4-4444-4-7777-5555-2222-5555-|


ringout
----------------------------------------------------------------------|
----------------------------------------------------------------------|
----------------------------------------------------------------------|
-4...-----5...-----4---7------4...-----4...-------------5------7------|
-4...-----3...-----2---5---7--4...-----2...-----2-------3-3333-5-5555-|
-4...----------------------7--4...--------------2-2222----------------|

--------------------------------------------------------|
--------------------------------------------------------|
--------------------------------------------------------|
---------------------------5-----------5----4----7------|
-4-----------4--------4----3--3-33-3-3-3-33-2-22-5-55-7-|
-4--4-44-4-4-4-44-4-4-4-44----------------------------7-|

---------------------------------------------------------------|
---------------------------------------------------------------|
---------------------------------------------------------------|
---------------------------5-----------5-----------5------7----|
-4-----------4--------4----3--3-33-3-3-3-33-2------3-3333-5-55-|
-4--4-44-4-4-4-44-4-4-4-44------------------2-2222-------------|


ringout....
-------------------------------|
-------------------------------|
-------------------------------|
-4...--------------------------|
-4...-------------------7/9...-|
-4...--------------------------|

--------------------------------------------------------|
---------13------------------------13-------------------|
---12-11----12-9/11...-------12-11----12-9/11h12...-----|
--------------------------------------------------------|
-9-------------------------9----------------------------|
--------------------------------------------------------|


--------------------------------------------------------------|
--------13----------------------15t11h12h13-------------------|
--12-11----12-9/11-----15t12h13-------------15t12h13p12p11----|
------------------------------------------------------------5-|    PAUSE
9-----------------------------------------------------------5-|
------------------------------------------------------------5-|


-----------------------------------------------------------------|
-----------------------------------------------------------------|
-----------------------------------------------------------------|
-----------------------------------------------------------------|
-4-5-4---4--------4--------------4-5-4---4------------10---9---7-|
-4-5-4-4-4-4-4444-4-4-4-4-4-4444-4-5-4-4-4-4-4-4-4444-10---9---7-|
pm     .   . ....   . . . . ....       .   . . . ....

-----------------------------------------------------------------|
-----------------------------------------------------------------|
-----------------------------------------------------------------|
-----------------------------------------------------------------|
-4-5-4---4--------4--------------4-5-4---4------------10---9---7-|
-4-5-4-4-4-4-4444-4-4-4-4-4-4444-4-5-4-4-4-4-4-4-4444-10---9---7-|
pm     .   . ....   . . . . ....       .   . . . ....


near end
-----------------------------------------------------------------------|
-----------------------------------------------------------------------|
-----------------------------------------------------------------------|
-----------------------------------------------------------------------|
-4-5-4---4--------4-7---5-2-5-2-4-5-4---4------------9-10----7-x-5-7-5-|
-4-5-4-4-4-4-4444-4-7-4-5-2-5-2-4-5-4-4-4-4-4-4-4444-9-10-10-7-x-5-7-5-|
pm     .   . ....     .               .   . . . ....      .

------------------------------------------------------------------------|
------------------------------------------------------------------------|
------------------------------------------------------------------------|
------------------------------------------------------------------------|
-4-5-4---4--------4-7---5-2-5-2-4-5-4---4------------9-10-9-7-9-7-5-7-5-|
-4-5-4-4-4-4-4444-4-7-4-5-2-5-2-4-5-4-4-4-4-4-4-4444-9-10-9-7-9-7-5-7-5-|
pm     .   . ....     .               .   . . . ....

submitted by the scc





Comments


Popular Mark My Words tabs & chords
After A Fall Tabs
C-box Tabs
Dawn Of Ages Tabs
Hey Bra Tabs
How Do You Live Tabs
Revolt Tabs
Wasting Time Pushing Buttons Tabs


Song lyrics



↑ Back to top | Tablatures and chords are parodies/interpretations of the original songs. You may use it for private study, scholarship, research or language learning purposes only
© 2014 AZChords.com Contact us | Privacy policy | DMCA | Add/correct tabs | Request tabs | Top 50 tabs