>
 >
Revolt

Revolt Guitar Tabs

Mark My Words - Revolt chords, tabs, tablatures, lyrics

Guitar lessons | Add/correct | Request | Top 50 tabs Artists:  A B C D E F G H I J K L M N O P Q R S T U V W X Y Z 0-9

Revolt Guitar Tabs – Mark My Words

CD, Sheet music, Poster

Do you like Revolt? Share with your friends now
Tabs

INTRO
-------------------------------------------------------------------------------|
-------------------------------------------------------------------------------|
------------------------------------------5/7----------------------------------|
-4...---1--3---0...---------4...---1--3----------------------------------------|
-4...---1--3---0...---------4...---1--3---3/5----------------------------------|
-4...---1--3---0...---------4...---1--3P0------PICK SCRAPE THE S... OUT OF IT!-|

'LIKE SPIT IN THE FACE...'
-------------------------------------------------------------------------|
-----------------------------------------------3-----------2-------------|
-------------------------------------------2-----2---3-------3---2-------|
-----7...---8-7-----8...---10-8-----3...-----3-----3---3-------3---3-----|
-1-0-5...---6-5-1-0-6...---8--6-1-0-1...-1---------------1-----------1-3-|
-1-0------------1-0-------------1-0----------------------------------1-3-|


-------------------------------------------------------------------------|
-----------------------------------------------3-----------2-------------|
-------------------------------------------2-----2---3-------3---2-------|
-----7...---8-7-----8...---10-8-----3...-----3-----3---3-------3---3-----|
-1-0-5...---6-5-1-0-6...---8--6-1-0-1...-1---------------1-----------1-3-|
-1-0------------1-0-------------1-0----------------------------------1-3-|


DRUM BIT
-----------------------------|
-----------------------------|
-----------------------------|
-0...---------------------8--|
-0...---------------------6--|
-0...------------------------|


VERSE
-------------------------------------------------------|
-------------------------------------------------------|
-------------------------------------------------------|
-7---7---7-----------------7/8-8-8---7-----------------|
-5---5---5-----------------5/6-6-6---5-----------------|
---0---0---0-0-0-0-0-0-0-0---------0---0-0-0-0-0-0-0-0-|
pm .   .   . . . . . . . .         .   . . . . . . . .


--------------------------------------------------|
--------------------------------------------------|
--------------------------------------------------|
7---5---7---------7-7-----3--3-3--3-3--3-3--3-3-5-|
5---3---5---------5-5-----1--1-1--1-1--1-1--1-1-3-|
--0---0---0-0-0-0-----0-0-------------------------|
pm.   .   . . . .     . .

        'REVOLT...'
----------------------------------------------------|
----------------------------------------------------|
----------------------------------------------------|
-0...----8-7...----3--3-3-3--3-3-3--3-3-3--3-3-3--5-|
-0...----6-5...----1--1-1-1--1-1-1--1-1-1--1-1-1--3-|
-0...-----------------------------------------------|
pm                    . .    . .    . .    . .

----------------------------------------------------|
----------------------------------------------------|
----------------------------------------------------|
-0...--------------3--3-3-3--3-3-3--3-3-3--3-3-3--5-|
-0...----1-0...----1--1-1-1--1-1-1--1-1-1--1-1-1--3-|
-0...----1-0...-------------------------------------|
pm                    . .    . .    . .    . .

'In Time...'
-----------------------------------------------------------|
-----------------------------------------------------------|
-----------------------------------------------------------|
-----------------------------------------------------------|
-3H5-------3H6---------------------------------------------|
-----0-0-0-----0-0-0-0-0-0-0-0-3-0-1-0-1-4-0-0-0-0-0-0-0-0-|
pm   . . .     . . . . . . . .             . . . . . . . .


-----------------------------------------|
-----------------------------------------|
-----------------------------------------|
-----------------------------------------|
-3H5-------3H6-----------------3---1---4-|
-----0-0-0-----0-0-0-0-0-0-0-0-3---1---4-|
pm   . . .     . . . . . . . .


-----------------------------------------------------------|
-----------------------------------------------------------|
-----------------------------------------------------------|
-----------------------------------------------------------|
-3H5-------3H6---------------------------------------------|
-----0-0-0-----0-0-0-0-0-0-0-0-3-0-1-0-1-4-0-0-0-0-0-0-0-0-|
pm   . . .     . . . . . . . .             . . . . . . . .


-----------------------------------------|
-----------------------------------------|
-----------------------------------------|
-----------------------------------------|
-3H5-------3H6-----------------3---1---4-|
-----0-0-0-----0-0-0-0-0-0-0-0-3---1---4-|
     . . .     . . . . . . . .


DRUMS STOP
-------------------------------------------------------|
-------------------------------------------------------|
-------------------------------------------------------|
-7---7---7-----------------7/8-8-8---7-----------------|
-5---5---5-----------------5/6-6-6---5-----------------|
---0---0---0-0-0-0-0-0-0-0---------0---0-0-0-0-0-0-0-0-|
pm .   .   . . . . . . . .         .   . . . . . . . .


--------------------------------------------------|
--------------------------------------------------|
--------------------------------------------------|
7---5---7---------7-7-----3--3-3--3-3--3-3--3-3-5-|
5---3---5---------5-5-----1--1-1--1-1--1-1--1-1-3-|
--0---0---0-0-0-0-----0-0-------------------------|
pm.   .   . . . .     . .


'lost...'
-------------------------------------------------------|
-------------------------------------------------------|
-------------------------------------------------------|
-7---7---7-----------------7/8-8-8---7-----------------|
-5---5---5-----------------5/6-6-6---5-----------------|
---0---0---0-0-0-0-0-0-0-0---------0---0-0-0-0-0-0-0-0-|
pm .   .   . . . . . . . .         .   . . . . . . . .


--------------------------------------------------|
--------------------------------------------------|
--------------------------------------------------|
7---5---7---------7-7-----3--3-3--3-3--3-3--3-3-5-|
5---3---5---------5-5-----1--1-1--1-1--1-1--1-1-3-|
--0---0---0-0-0-0-----0-0-------------------------|
pm.   .   . . . .     . .


-------------------------------------------------------|
-------------------------------------------------------|
-------------------------------------------------------|
-7---7---7-----------------7/8-8-8---7-----------------|
-5---5---5-----------------5/6-6-6---5-----------------|
---0---0---0-0-0-0-0-0-0-0---------0---0-0-0-0-0-0-0-0-|
pm .   .   . . . . . . . .         .   . . . . . . . .


--------------------------------------------------|
--------------------------------------------------|
--------------------------------------------------|
7---5---7---------7-7-----3--3-3--3-3--3-3--3-3-5-|
5---3---5---------5-5-----1--1-1--1-1--1-1--1-1-3-|
--0---0---0-0-0-0-----0-0-------------------------|
pm.   .   . . . .     . .


        'REVOLT'
----------------------------------------------------|
----------------------------------------------------|
----------------------------------------------------|
-0...----8-7...----3--3-3-3--3-3-3--3-3-3--3-3-3--5-|
-0...----6-5...----1--1-1-1--1-1-1--1-1-1--1-1-1--3-|
-0...-----------------------------------------------|
pm                    . .    . .    . .    . .

----------------------------------------------------|
----------------------------------------------------|
----------------------------------------------------|
-0...--------------3--3-3-3--3-3-3--3-3-3--3-3-3--5-|
-0...----1-0...----1--1-1-1--1-1-1--1-1-1--1-1-1--3-|
-0...----1-0...-------------------------------------|
pm                    . .    . .    . .    . .

'rob us of our rights...'
--------------------------------------------------------------------|
--------------------------------------------------------------------|
--------------------------------------------------------------------|
-7-------7-----7-8-------8---8-7-5-------5-7-----8-------------8-10-|
-5-------5-----5-6-------6---6-5-3-------3-5-----6-------------6-8--|
---0-0-0---0-0-----0-0-0---0-------0-0-0-----0-0----0-0-0-0000------|
pm . . .   . .     . . .   .       . . .     . .    . . . ....


----------------------------------------------------|
----------------------------------------------------|
----------------------------------------------------|
-7-------7-----7-8-------8---8-7-5-------5-7-----8--|
-5-------5-----5-6-------6---6-5-3-------3-5-----6--|
---0-0-0---0-0-----0-0-0---0-------0-0-0-----0-0----|
pm . . .   . .     . . .   .       . . .     . .

play this a few times then the bar above this
--------------------------------------------------------------------|
--------------------------------------------------------------------|
--------------------------------------------------------------------|
-7-------7-----7-8-------8---8-7-5-------5-7-----8-------------8-10-|
-5-------5-----5-6-------6---6-5-3-------3-5-----6-------------6-8--|
---0-0-0---0-0-----0-0-0---0-------0-0-0-----0-0----0-0-0-0000------|
pm . . .   . .     . . .   .       . . .     . .    . . . ....


pause then
--------------------------------------------------------------------|
--------------------------------------------------------------------|
--------------------------------------------------------------------|
-7-----------------------------5-8-------------5-8-8-8-8-8-10-10-10-|
-5-------------6-0-------------3-6-------------3/6-6-6-6-6-8--8--8--|
---0-0-0-0-0-0-6-0-0-0-0-0-0-0-----1-1-1-1-1-1----------------------|
pm . . . . . .     . . . . . .     . . . . . .


-----------------------------------------------------------------|
-----------------------------------------------------------------|
-----------------------------------------------------------------|
-7-----------------------------5-8-------------5-8-8-8-8-8-5-5-5-|
-5-------------6-0-------------3-6-------------3/6-6-6-6-6-3-3-3-|
---0-0-0-0-0-0-6-0-0-0-0-0-0-0-----1-1-1-1-1-1-------------------|
pm . . . . . .     . . . . . .     . . . . . .


outro to end.
--------------------------------------------------------------------|
--------------------------------------------------------------------|
--------------------------------------------------------------------|
-7-------7-----7-8-------8---8-7-5-------5-7-----8-------------8-10-|
-5-------5-----5-6-------6---6-5-3-------3-5-----6-------------6-8--|
---0-0-0---0-0-----0-0-0---0-------0-0-0-----0-0----0-0-0-0000------|
pm . . .   . .     . . .   .       . . .     . .    . . . ....

yew!





Comments


Popular Mark My Words tabs & chords
After A Fall Tabs
C-box Tabs
Dawn Of Ages Tabs
Hey Bra Tabs
How Do You Live Tabs
Tiger Uppercut Tabs
Wasting Time Pushing Buttons Tabs


Song lyrics



↑ Back to top | Tablatures and chords are parodies/interpretations of the original songs. You may use it for private study, scholarship, research or language learning purposes only
© 2014 AZChords.com Contact us | Privacy policy | DMCA | Add/correct tabs | Request tabs | Top 50 tabs