>
 >
How Do You Live

How Do You Live Guitar Tabs

Mark My Words - How Do You Live chords, tabs, tablatures, lyrics

Guitar lessons | Add/correct | Request | Top 50 tabs Artists:  A B C D E F G H I J K L M N O P Q R S T U V W X Y Z 0-9

How Do You Live Guitar Tabs – Mark My Words

CD, Sheet music, Poster

Do you like How Do You Live? Share with your friends now
Tabs

 | ---------------------------------------------------------------------- |
 | ---------------------------------------------------------------------- |
 | ---------------------------------------------------------------------- |
 | -8/7---10/8---8-7---5/7---------10-10-10-----13-12--12-12-12-10/12-10- |
 |--6/5-0-8-/6-0-6/5-0-3/5-0-0-000-8--8--8--10--11-10--10-10-10-8/-10-8-- |
 | -----0------0-----0-----0-0-000----------10--------------------------- |
PM      .      .     .     . . ...




 | ------------------------------------------------------------ |
 | ------------------------------------------------------------ |
 | ------------------------------------------------------------ |
 | -8/7---10/8---8-7---5/7---------8-8-8-5--7--8--8-8-5--8-7-8- |
 |--6/5-0-8-/6-0-6/5-0-3/5-0-0-000-6-6-6-3--5--6--6-6-3--6/5/6- |
 | -----0------0-----0-----0-0-000----------------------------- |
PM      .      .     .     . . ...





 | ---------------------------------------------------------------------- |
 | ---------------------------------------------------------------------- |
 | ---------------------------------------------------------------------- |
 | -8/7---10/8---8-7---5/7---------10-10-10-----13-12--12-12-12-10/12-10- |
 |--6/5-0-8-/6-0-6/5-0-3/5-0-0-000-8--8--8--10--11-10--10-10-10-8/-10-8-- |
 | -----0------0-----0-----0-0-000----------10--------------------------- |
PM      .      .     .     . . ...




 | -------------------------------------------------------------- |
 | -------------------------------------------------------------- |
 | -------------------------------------------------------------- |
 | -8/7---10/8---12/10---5/7---------8-8-8-5--7--8--8-8-5--8-7-8- |
 |--6/5-0-8-/6-0-10/8--0-3/5-0-0-000-6-6-6-3--5--6--6-6-3--6/5/6- |
 | -----0------0-------0-----0-0-000----------------------------- |
PM      .      .       .     . . ...




 | ------------------------------------------------ |
 | ------------------------------------------------ |
 | ------------------------------------------------ |
 | -0...---------------0--6...----------5--5--5--5- |
 | -0...---------------0--6...----------5--5--5--5- |
 | -0...---------------0--6...----------5--5--5--5- |
PM



 | ----------------------------------------------------------------------- |
 | ----------------------------------------------------------------------- |
 | ----------------------------------------------------------------------- |
 | -8--8--8/7---------------------------8--8--8/7------------------------- |
 | -6--6--6/5---000-----000-----000-----6--6--6/5---000------------------- |
 | -----------0-000-0-0-000-0-0-000-0-0-----------0-000-0-3333-333/5-5555- |
PM            . ... . . ... . . ... . .           . ... . 



 | ------------------------------------------------------------------------|
 | ------------------------------------------------------------------------|
 | ------------------------------------------------------------------------|
 | -7--5--7/8-----------------------8/7/8/10--10-10-10-10-10-10-10-5-5-5-5-|
 | -5--3--5/6-6-666-6-6-666-6-6-666-6/5/6/8---8--8--8--8--8--8--8--3-3-3-3-|
 | ------------------------------------------------------------------------|
PM            . ... . . ... . . ... .




 | ----------------------------------------------------------------------- |
 | ----------------------------------------------------------------------- |
 | ----------------------------------------------------------------------- |
 | -8--8--8/7---------------------------8--8--8/7------------------------- |
 | -6--6--6/5---000-----000-----000-----6--6--6/5---000------------------- |
 | -----------0-000-0-0-000-0-0-000-0-0-----------0-000-0-3333-333/5-5555- |
PM            . ... . . ... . . ... . .           . ... . 



 | ------------------------------------------------------------------------|
 | ------------------------------------------------------------------------|
 | ------------------------------------------------------------------------|
 | -7--5--7/8-----------------------8/7/8/10--10-10-10-10-10-10-10-5-5-5-5-|
 | -5--3--5/6-6-666-6-6-666-6-6-666-6/5/6/8---8--8--8--8--8--8--8--3-3-3-3-|
 | ------------------------------------------------------------------------|
PM            . ... . . ... . . ... .




 | --------------------------------------------------------- |
 | --------------------------------------------------------- |
 | --------------------------------------------------------- |
 | -8/7-8/7---------------------8/7-8/7--------------------- |
 | -6/5-6/5--0-0--0-0-0--0-0-0--6/5-6/5--0-0--0-0-0--------- |
 | ----------0-0--0-0-0--0-0-0-----------0-0--0-0-0-035-035- |
PM           . .  . . .  . . .           . .  . . . 



 | ---------------------------------------------------- |
 | ---------------------------------------------------- |
 | -----------------------------------------------------|
 | -8/7-8/7---------------------7/5-7/8--8-8--8-8--5-5- |
 | -6/5-6/5--0-0--0-0-0--0-0-0--5/3-5/6--6-6--6-6--3-3- |
 | ----------0-0--0-0-0--0-0-0------------------------- |
PM           . .  . . .  . . .          




 | --------------------------------------------------------- |
 | --------------------------------------------------------- |
 | --------------------------------------------------------- |
 | -8/7-8/7---------------------8/7-8/7--------------------- |
 | -6/5-6/5--0-0--0-0-0--0-0-0--6/5-6/5--0-0--0-0-0--------- |
 | ----------0-0--0-0-0--0-0-0-----------0-0--0-0-0-035-035- |
PM           . .  . . .  . . .           . .  . . . 



 | ---------------------------------------------------- |
 | ---------------------------------------------------- |
 | -----------------------------------------------------|
 | -8/7-8/7---------------------7/5-7/8--8-8--8-8--5-5- |
 | -6/5-6/5--0-0--0-0-0--0-0-0--5/3-5/6--6-6--6-6--3-3- |
 | ----------0-0--0-0-0--0-0-0------------------------- |
PM           . .  . . .  . . .          



 | ----------------------------------------- |
 | ----------------------------------------- |
 | ----------------------------------------- |
 | -7/8-7X---0...------------------5--5-5-5- |
 | -5/6-5X---0...-----6-5-5--5-5-5-3--3-3-3- |
 | ----------0...-----6-5-5--5-5-5---------- |




 | ----------------------------------------------- |
 | ----------------------------------------------- |
 | ----------------------------------------------- |
 | -7/8-7X---0...-----8/10--10--10-10-10-5--5-5-5- |
 | -5/6-5X---0...-----6/8---8---8--8--8--3--3-3-3- |
 | ----------0...--------------------------------- |




 | ----------------------------------------- |
 | ----------------------------------------- |
 | ----------------------------------------- |
 | -7/8-7X---0...------------------5--5-5-5- |
 | -5/6-5X---0...-----6-5-5--5-5-5-3--3-3-3- |
 | ----------0...-----6-5-5--5-5-5---------- |




 | ----------------------------------------------------- |
 | ----------------------------------------------------- |
 | ----------------------------------------------------- |
 | -7/8-7X---0...-----8/10--10--10-10-10-5--5-5-5/7-8-8- |
 | -5/6-5X---0...-----6/8---8---8--8--8--3--3-3-3/5-6-6- |
 | ----------0...--------------------------------------- |




 | ---------------------------------------------------------------------- |
 | ---------------------------------------------------------------------- |
 | ---------------------------------------------------------------------- |
 | -8/7---10/8---8-7---5/7---------10-10-10-----13-12--12-12-12-10/12-10- |
 |--6/5-0-8-/6-0-6/5-0-3/5-0-0-000-8--8--8--10--11-10--10-10-10-8/-10-8-- |
 | -----0------0-----0-----0-0-000----------10--------------------------- |
PM      .      .     .     . . ...




 | ------------------------------------------------------------ |
 | ------------------------------------------------------------ |
 | ------------------------------------------------------------ |
 | -8/7---10/8---8-7---5/7---------8-8-8-5--7--8--8-8-5--8-7-8- |
 |--6/5-0-8-/6-0-6/5-0-3/5-0-0-000-6-6-6-3--5--6--6-6-3--6/5/6- |
 | -----0------0-----0-----0-0-000----------------------------- |
PM      .      .     .     . . ...





 | ---------------------------------------------------------------------- |
 | ---------------------------------------------------------------------- |
 | ---------------------------------------------------------------------- |
 | -8/7---10/8---8-7---5/7---------10-10-10-----13-12--12-12-12-10/12-10- |
 |--6/5-0-8-/6-0-6/5-0-3/5-0-0-000-8--8--8--10--11-10--10-10-10-8/-10-8-- |
 | -----0------0-----0-----0-0-000----------10--------------------------- |
PM      .      .     .     . . ...




 | -------------------------------------------------------------- |
 | -------------------------------------------------------------- |
 | -------------------------------------------------------------- |
 | -8/7---10/8---12/10---5/7---------8-8-8-5--7--8--8-8-5--8-7-8- |
 |--6/5-0-8-/6-0-10/8--0-3/5-0-0-000-6-6-6-3--5--6--6-6-3--6/5/6- |
 | -----0------0-------0-----0-0-000----------------------------- |
PM      .      .       .     . . ...





Comments


Popular Mark My Words tabs & chords
After A Fall Tabs
C-box Tabs
Dawn Of Ages Tabs
Hey Bra Tabs
Revolt Tabs
Tiger Uppercut Tabs
Wasting Time Pushing Buttons Tabs


Song lyrics



↑ Back to top | Tablatures and chords are parodies/interpretations of the original songs. You may use it for private study, scholarship, research or language learning purposes only
© 2014 AZChords.com Contact us | Privacy policy | DMCA | Add/correct tabs | Request tabs | Top 50 tabs