>
 >
Hey Bra

Hey Bra Guitar Tabs

Mark My Words - Hey Bra chords, tabs, tablatures, lyrics

Guitar lessons | Add/correct | Request | Top 50 tabs Artists:  A B C D E F G H I J K L M N O P Q R S T U V W X Y Z 0-9

Hey Bra Guitar Tabs – Mark My Words

CD, Sheet music, Poster

Do you like Hey Bra? Share with your friends now
Tabs
HEY BRA


D#---------------------------------|
A#---------------------------------|
F#---------------------------------|
C#-7-777---------------------------|
G#-5-555-6--6--6--5-555-3--3--3--0-|
C#-------6--6--6--5-555-3--3--3--0-|
PM   ...            ...


------------------------------------------|
------------------------------------------|
---------7...------------7...-------------|
-0...----7...----0...----7...-------------|
-0...----5...----0...----5...-----X/--0-0-|
-0...------------0...------------X/---0-0-|
PM                                    . .


-----------------------------------------------------|
-----------------------------------------------------|
-----------------------------------------------------|
-----------------------------------------------------|
-0-0--0-0-0--0-3-0-0-3-5-6-0-0--0-0-0--0-3-0-0-1-3-1-|
-0-0--0-0-0--0-3-0-0-3-5-6-0-0--0-0-0--0-3-0-0-1-3-1-|
PM                 .                         .


-----------------------------------------------------|
-----------------------------------------------------|
-----------------------------------------------------|
--------------------------------------------8--8--8--|
-0-0--0-0-0--0-3-0-0-3-5-6-0-0--0-0-0-0-0-0-6--6--6--|
-0-0--0-0-0--0-3-0-0-3-5-6-0-0--0-0-0-0-0-0----------|
PM                 .            . . . . . .


-----------------------------------------------------|
-----------------------------------------------------|
-----------------------------------------------------|
-----------------------------------------------------|
-0-0--0-0-0--0-3-0-0-3-5-6-0-0--0-0-0--0-3-0-0-1-3-1-|
-0-0--0-0-0--0-3-0-0-3-5-6-0-0--0-0-0--0-3-0-0-1-3-1-|
PM                 .                         .


-----------------------------------------------------|
-----------------------------------------------------|
-----------------------------------------------------|
--------------------------------------------5--7--7--|
-0-0--0-0-0--0-3-0-0-3-5-6-0-0--0-0-0-0-0-0-3--5--5--|
-0-0--0-0-0--0-3-0-0-3-5-6-0-0--0-0-0-0-0-0----------|
PM                 .            . . . . . .


CHORUS
--------------------------------------------------------|
--------------------------------------------------------|
--------------------------------------------------------|
-7/8--8--8--8-----10-------12---7-5-7-------7-5-7--7--7-|
-5/6--6--6--6-8-8-8--10-10-10---5-3-5-------5-3-5--5--5-|
--------------8-8----10-10----0-------0-000-------------|

--------------------------------------------------------|
--------------------------------------------------------|
--------------------------------------------------------|
-7/8--8--8--8-----10-------12---7-5-7---------8-7--7--7-|
-5/6--6--6--6-8-8-8--10-10-10---5-3-5---------6-5--5--5-|
--------------8-8----10-10----0-------0-000-0-----------|


'im here for you'                                     'until my dying day'
---------------------------------------------------------------------------------|
---------------------------------------------------------------------------------|
---------------------------------------------------------------------------------|
---------------------------------------------------------------------------------|
-6-6--6--6--6-6-6--6--6--6-0-0--0-0-0--0-0-0--0-0-0--0-6-6--6--6--6-6-6--6--6--6-|
-6-6--6--6--6-6-6--6--6--6-0-0--0-0-0--0-0-0--0-0-0--0-6-6--6--6--6-6-6--6--6--6-|
pm                         . .  . . .  . . .  . . .  .


verse 2
-----------------------------------------------------|
-----------------------------------------------------|
-----------------------------------------------------|
-----------------------------------------------------|
-0-0--0-0-0--0-3-0-0-3-5-6-0-0--0-0-0--0-3-0-0-1-3-1-|
-0-0--0-0-0--0-3-0-0-3-5-6-0-0--0-0-0--0-3-0-0-1-3-1-|
PM                 .                         .


-----------------------------------------------------|
-----------------------------------------------------|
-----------------------------------------------------|
--------------------------------------------8--8--8--|
-0-0--0-0-0--0-3-0-0-3-5-6-0-0--0-0-0-0-0-0-6--6--6--|
-0-0--0-0-0--0-3-0-0-3-5-6-0-0--0-0-0-0-0-0----------|
PM                 .            . . . . . .

-----------------------------------------------------|
-----------------------------------------------------|
-----------------------------------------------------|
-----------------------------------------------------|
-0-0--0-0-0--0-3-0-0-3-5-6-0-0--0-0-0--0-3-0-0-1-3-1-|
-0-0--0-0-0--0-3-0-0-3-5-6-0-0--0-0-0--0-3-0-0-1-3-1-|
PM                 .                         .


-----------------------------------------------------|
-----------------------------------------------------|
-----------------------------------------------------|
--------------------------------------------5--7--7--|
-0-0--0-0-0--0-3-0-0-3-5-6-0-0--0-0-0-0-0-0-3--5--5--|
-0-0--0-0-0--0-3-0-0-3-5-6-0-0--0-0-0-0-0-0----------|
PM                 .            . . . . . .


'when i was down'
-------------------------------------------------------|
-------------------------------------------------------|
-------------------------------------------------------|
-------------------------------------------------------|
-6-6--6--6--6-6-6--6--6--6-0-0--0-0-0--0-0-0--0-0-0--0-|
-6-6--6--6--6-6-6--6--6--6-0-0--0-0-0--0-0-0--0-0-0--0-|
pm                         . .  . . .  . . .  . . .  .


-----------------------------------------------------|
-----------------------------------------------------|
--------------------------------------------x--------|
--------------------------------------------x-5-7--7-|
6-6--6--6--6-6-6--6--6--6-0-0--0-0-0--0-3-0-x-3-5--5-|
6-6--6--6--6-6-6--6--6--6-0-0--0-0-0--0-3-0-x--------|
                          . .  . . .  .


--------------------------------------------------------|
--------------------------------------------------------|
--------------------------------------------------------|
-7/8--8--8--8-----10-------12---7-5-7-------7-5-7--7--7-|
-5/6--6--6--6-8-8-8--10-10-10---5-3-5-------5-3-5--5--5-|
--------------8-8----10-10----0-------0-000-------------|
pm                                    . ...


--------------------------------|
--------------------------------|
--------------------------------|
-7/8--8--8--8-----10-------12---|
-5/6--6--6--6-8-8-8--10-10-10---|
--------------8-8----10-10----0-|

tempo change
-----------------------------------|
-----------------------------------|
-----------------------------------|
-7-------------8-7-----------------|
-5-0-0-0-6-0-0-6-5-0-0-0-6-3-5-3-1-|
---0-0-0-6-0-0-----0-0-0-6-3-5-3-1-|

---------------------------------|
---------------------------------|
---------------------------------|
---------------8-7---------------|
-1-0-0-0-6-0-0-6-5-0-0-0-8-5-6-3-|
-1-0-0-0-6-0-0-----0-0-0-8-5-6-3-|

---------------------------------|
---------------------------------|
---------------------------------|
---------------8-7---------------|
-1-0-0-0-6-0-0-6-5-0-0-0-6-1-3-5-|
-1-0-0-0-6-0-0-----0-0-0-6-1-3-5-|

---------------------------------|
---------------------------------|
---------------------------------|
---------------8-7---------------|
-1-0-0-0-6-0-0-6-5-0-0-0-8-5-6-3-|
-1-0-0-0-6-0-0-----0-0-0-8-5-6-3-|
pm                       . . . .


bridge
-----------------------------------------------------------------|
-----------------------------------------------------------------|
-----------------------------------------------------------------|
---------------------------------------------------------5-8-7---|
-1-0---0---0---0---0---0-3-1-5-3-6-0---0---0---0---0---0-3-6-5-6-|
-1-0-0-0-0-0-0-0-0-0-0-0-3-1-5-3-6-0-0-0-0-0-0-0-0-0-0-0-------6-|
pm   .   .   .   .   .               .   .   .   .   .


-------------------------------------------------------------------|
-------------------------------------------------------------------|
-------------------------------------------------------------------|
---------------------------------------------------------5-8-7-----|
-5-0---0---0---0---0---0-6-1-3-5-1-0---0---0---0---0---0-3-6-5-6---|
-5-0-0-0-0-0-0-0-0-0-0-0-6-1-3-5-1-0-0-0-0-0-0-0-0-0-0-0-------6---|
pm   .   .   .   .   .               .   .   .   .   .


-----------------------------------------------------------------|
-----------------------------------------------------------------|
-----------------------------------------------------------------|
---------------------------------------------------------5-8-7---|
-1-0---0---0---0---0---0-3-1-5-3-6-0---0---0---0---0---0-3-6-5-6-|
-1-0-0-0-0-0-0-0-0-0-0-0-3-1-5-3-6-0-0-0-0-0-0-0-0-0-0-0-------6-|
pm   .   .   .   .   .               .   .   .   .   .


-----------------------------------------------------------------|
-----------------------------------------------------------------|
-----------------------------------------------------------------|
---------------------------------------------------------8-8-8-8-|
-5-0---0---0---0---0---0-6-1-3-5-1-0---0---0---0---0---0-6-6-6-6-|
-5-0-0-0-0-0-0-0-0-0-0-0-6-1-3-5-1-0-0-0-0-0-0-0-0-0-0-0---------|
pm   .   .   .   .   .               .   .   .   .   .


'never let go'
-----------------------------------------------------------------|
-----------------------------------------------------------------|
-----------------------------------------------------------------|
---------------------------------------------------------5-8-7---|
-6-0-000-000-0-000-000-0-3-1-5-3-6-0-000-000-0-000-000-0-3-6-5-6-|
-6-0-000-000-0-000-000-0-3-1-5-3-6-0-000-000-0-000-000-0-------6-|
pm . ... ... . ... ...             . ... ... . ... ...


------------------------------------------------------------------|
------------------------------------------------------------------|
------------------------------------------------------------------|
-----------------------------------------------------------3-5-7--|
-5-0-000-000-0-000-000-0-6-1-3-5-1-0-000-000-0-000-000-0-3-1-3-5--|
-5-0-000-000-0-000-000-0-6-1-3-5-1-0-000-000-0-000-000-0-3--------|
pm . ... ... . ... ...             . ... ... . ... ...

'when all hope was lost'
----------------------------------------------------------|
----------------------------------------------------------|
----------------------------------------------------------|
-7/8--8--8--8-----10-------12---7-5-7---------7-5-7--7--7-|
-5/6--6--6--6-8-8-8--10-10-10---5-3-5---------5-3-5--5--5-|
--------------8-8----10-10----0-------0-000-0-------------|
pm                                    . ... .

--------------------------------------------------------|
--------------------------------------------------------|
--------------------------------------------------------|
-7/8--8--8--8-----10-------12---7-5-7---------8-7--7--7-|
-5/6--6--6--6-8-8-8--10-10-10---5-3-5---------6-5--5--5-|
--------------8-8----10-10----0-------0-000-0-----------|
pm                                    . ... .


'we'll still be here'
--------------------------------------------------------------------------------------|
--------------------------------------------------------------------------------------|
--------------------------------------------------------------------------------------|
--------------------------------------------------------------------------------------|
-6-6--6--6--6-6-6--6--6--6-0-0--0-0-0--0-0-0--0-0-0--0-6-6--6--6--6-6-6--6--6--6-0...-|
-6-6--6--6--6-6-6--6--6--6-0-0--0-0-0--0-0-0--0-0-0--0-6-6--6--6--6-6-6--6--6--6-0...-|


end shredd
---------------------------------|
---------------------------------|
---------------------------------|
---------------------------------|
-0-0--0-1-3--3-5-6--6-5--3--1--0-|
-0-0--0-1-3--3-5-6--6-5--3--1--0-|


tab submitted by scc





Comments


Popular Mark My Words tabs & chords
After A Fall Tabs
C-box Tabs
Dawn Of Ages Tabs
How Do You Live Tabs
Revolt Tabs
Tiger Uppercut Tabs
Wasting Time Pushing Buttons Tabs


Song lyrics



↑ Back to top | Tablatures and chords are parodies/interpretations of the original songs. You may use it for private study, scholarship, research or language learning purposes only
© 2014 AZChords.com Contact us | Privacy policy | DMCA | Add/correct tabs | Request tabs | Top 50 tabs