>
 >
Dawn Of Ages

Dawn Of Ages Guitar Tabs

Mark My Words - Dawn Of Ages chords, tabs, tablatures, lyrics

Guitar lessons | Add/correct | Request | Top 50 tabs Artists:  A B C D E F G H I J K L M N O P Q R S T U V W X Y Z 0-9

Dawn Of Ages Guitar Tabs – Mark My Words

CD, Sheet music, Poster

Do you like Dawn Of Ages? Share with your friends now
Tabs
INTRO
 | ---------------------------------------------------------- |
 | ---------------------------------------------------------- |
 | ---------------------------------------------------------- |
 | -9-7-10-------9-7-9-------9-7-10--10--7--9-9--7--10-10--7- |
 | -7-5-8--------7-5-7-------7-5-8---8---5--7-7--5--8--8---5- |
 | --------0-000-------0-000--------------------------------- |
PM         . ...       . ...

 | ------------------------------------------- |
 | ------------------------------------------- |
 | ------------------------------------------- |
 | -9-7-10-------9-7-9-------9-7-10--10--7--9- |
 | -7-5-8--------7-5-7-------7-5-8---8---5--7- |
 | --------0-000-------0-000------------------ |
PM         . ...       . ...

VERSE

 | ---------------------------------------------------------- |
 | ---------------------------------------------------------- |
 | ---------------------------------------------------------- |
 | -9-7-10-------9-7-9-------9-7-10--10--7--9-9--7--10-10--7- |
 | -7-5-8--------7-5-7-------7-5-8---8---5--7-7--5--8--8---5- |
 | --------0-000-------0-000--------------------------------- |
PM         . ...       . ...

 | -------------------------------------------------------- |
 | -------------------------------------------------------- |
 | -------------------------------------------------------- |
 | -9-7-10-------9-7-9-------9-7-10--10--------9------7---- |
 | -7-5-8--------7-5-7-------7-5-8---8---10-10-7--9-9-5--0- |
 | --------0-000-------0-000-------------8--8-----7-7------ |
PM         . ...       . ...

 | --------------------------------------------------------- |
 | --------------------------------------------------------- |
 | --------------------------------------------------------- |
 | -5-4--4--------4-5--4--------5-4--4--4-4-9-9--7-10-10--7- |
 | -3-2--2--2-222-2-3--2--2-222-3-2--2--2-2-7-7--5-8--8---5- |
 | --------------------------------------------------------- |
PM          . ...         . ...


 | ---------------------------------------------------------- |
 | ---------------------------------------------------------- |
 | ---------------------------------------------------------- |
 | -9-7-10-------9-7-9-------9-7-10--10--7--9-9--7--10-10--7- |
 | -7-5-8--------7-5-7-------7-5-8---8---5--7-7--5--8--8---5- |
 | --------0-000-------0-000--------------------------------- |
PM         . ...       . ...

 | ---------------------------------------------------------- |
 | ---------------------------------------------------------- |
 | ---------------------------------------------------------- |
 | -9-7-10-------9-7-9-------9-7-10--10--10----9---7---5----- |
 | -7-5-8--------7-5-7-------7-5-8---8---8--10-7-9-5-5-3-5-4- |
 | --------0-000-------0-000----------------8----7---3---3-2- |
PM         . ...       . ...                .    .   .   . .


MOSH!
 | ------------------------------------------------------------------ |
 | ------------------------------------------------------------------ |
 | ------------------------------------------------------------------ |
 | -------------------9---7---5-----------------------9---7-----10-9- |
 | -2--2-222-------10-7-9-5-5-3-5-4-2--2-222-------10-7-9-5-7---8--7- |
 | -0--0-000-0-0-0-8----7---3---3-2-0--0-000-0-0-0-8----7---5-0------ |
PM     . ... . .   .    .   .   . .    . ... . . . .    .   . .

 | ------------------------------------------------------------------ |
 | ------------------------------------------------------------------ |
 | ------------------------------------------------------------------ |
 | -------------------9---7---5-----------------------9---7-----10-9- |
 | -2--2-222-------10-7-9-5-5-3-5-4-2--2-222-------10-7-9-5-7---8--7- |
 | -0--0-000-0-0-0-8----7---3---3-2-0--0-000-0-0-0-8----7---5-0------ |
PM     . ... . .   .    .   .   . .    . ... . . . .    .   . .


'HEY GREAT IDEA'
 | ------------------------------------------------------------------ |
 | ------------------------------------------------------------------ |
 | ------------------------------------------------------------------ |
 | -------------------9---7---5-----------------------9---7-----10-9- |
 | -2--2-2-2-2-2-2-10-7-9-5-5-3-5-4-2--2-2-2-2-2-2-10-7-9-5-7---8--7- |
 | -0--0-0-0-0-0-0-8----7---3---3-2-0--0-0-0-0-0-0-8----7---5-0------ |
PM     . . . . . . .    .   .   . .    . . . . . . . .    .   . .


 | ------------------------------------------------------------------ |
 | ------------------------------------------------------------------ |
 | ------------------------------------------------------------------ |
 | -------------------9---7---5-----------------------9---7-----10-9- |
 | -2--2-2-2-2-2-2-10-7-9-5-5-3-5-4-2--2-2-2-2-2-2-10-7-9-5-7---8--7- |
 | -0--0-0-0-0-0-0-8----7---3---3-2-0--0-0-0-0-0-0-8----7---5-0------ |
PM     . . . . . . .    .   .   . .    . . . . . . . .    .   . .


SLOW
 | ---------------------------------------------------------------------- |
 | ---------------------------------------------------------------------- |
 | -------------------------4---4---4-4---------------------------------- |
 | -2-----------5---5---5-5-0---0---0-0---------------------------------- |
 | -2---2---2-2-3---3---3-3-2---2---2-2- 7-8-7-0-5-7-5-0-3-5-3-0-2-3-2-0- |
 | -0---0---0-0-------------3---3---3-3---------------------------------- |
                                          H P P H H P P H H P P H H P P


 | ------------------------------------------------------------------ |
 | ------------------------------------------------------------------ |
 | ---------------------------7---7--7-7--10-9-7--10----------------- |
 | -2-------------5---5---5-5-7---7--7-7----------------------------- |
 | -2---2---2-2-2X3---3---3-3-5---5--5-5--8--7-5--8------------------ |
 | -0---0---0-0-0X--------------------------------------------------- |

 | ---------------------------------------------------------------------- |
 | ---------------------------------------------------------------------- |
 | -------------------------4---4---4-4---------------------------------- |
 | -2-----------5---5---5-5-0---0---0-0---------------------------------- |
 | -2---2---2-2-3---3---3-3-2---2---2-2- 7-8-7-0-5-7-5-0-3-5-3-0-2-3-2-0- |
 | -0---0---0-0-------------3---3---3-3---------------------------------- |
                                          H P P H H P P H H P P H H P P

 | ------------------------------------------------------------------ |
 | ------------------------------------------------------------------ |
 | ---------------------------7---7--7-7--10-9-7--10----------------- |
 | -2-------------5---5---5-5-7---7--7-7----------------------------- |
 | -2---2---2-2-2X3---3---3-3-5---5--5-5--8--7-5--8------------------ |
 | -0---0---0-0-0X--------------------------------------------------- |


THRASH
 | --------------------------------------------------------------------- |
 | --------------------------------------------------------------------- |
 | -9------------------------------------------------------------------- |
 | ---------------------------------------------------------3--------6-- |
 | -7---------------7---5---8---3-5-3-0---------------0-3-7----0-5-7---- |
 | ---0-000-0-0-000---0---0---0-------0-0-000-0-0-000------------------- |
                                 H P                   H H      H H

 | ----------------------------------------------------------------------------------- |
 | ----------------------------------------------------------------------------------- |
 | -9--------------------------------------------------------------------------------- |
 | ------------------------------------------------------------------------0357-----0- |
 | -7---------------7-8-7-0-5-7-5-0-3-5-3-0-2-3-2-0-0------------------0357----0357-0- |
 | ---0-000-0-0-000---------------------------------0-000-0-0-000--0357-------------0- |
PM    . ... . . ...  H P P H H P P H H P P H H P P    ... . . ...   HHH HHH HHH HHH





Comments


Popular Mark My Words tabs & chords
After A Fall Tabs
C-box Tabs
Hey Bra Tabs
How Do You Live Tabs
Revolt Tabs
Tiger Uppercut Tabs
Wasting Time Pushing Buttons Tabs


Song lyrics



↑ Back to top | Tablatures and chords are parodies/interpretations of the original songs. You may use it for private study, scholarship, research or language learning purposes only
© 2014 AZChords.com Contact us | Privacy policy | DMCA | Add/correct tabs | Request tabs | Top 50 tabs