» » »

Mark My Words, C-box Tabs (ver.1)

Artists:  A B C D E F G H I J K L M N O P Q R S T U V W X Y Z # 

C-box Tabs (ver.1)

Mark My Words Tabs
 Rating:
4/5 (4 votes)
C-box lessons Tabs too difficult? Try these video lessons and learn fast
1
                
 | ----------------------- |
 | ----------------------- |
 | ---------------------0- |
 | --5------------------2- |
 | --3----5----8----7-3-2- |
 | ----XX-3-XX-6-XX-5-1-0- |



VERSE


 | ----------------------------------------------------- |
 | ----------------------------------------------------- |
 | ----------------------------------------------------- |
 | --3-----------3-----------3-------------------------- |
 | --1-6-5--5--5-1-6-5--5--5-1-6-5--5--5--3-3--3-3-3--3- |
 | ----4-3--3--3---4-3--3--3---4-3--3--3--1-1--1-1-1--1- |




 | -------------------------------------------------------- |
 | -------------------------------------------------------- |
 | -------------------------------------------------------- |
 | --3-----------3-----------3-6--------------------------- |
 | --1-6-5--5--5-1-6-5--5--5-1-4-5--5--5--------------0--0- |
 | ----4-3--3--3---4-3--3--3-----3--3--3--0-1111-1111-0--0- |



AGAIN


 | ----------------------------------------------------- |
 | ----------------------------------------------------- |
 | ----------------------------------------------------- |
 | --3-----------3-----------3-------------------------- |
 | --1-6-5--5--5-1-6-5--5--5-1-6-5--5--5--3-3--3-3-3--3- |
 | ----4-3--3--3---4-3--3--3---4-3--3--3--1-1--1-1-1--1- |




 | -------------------------------------------------------- |
 | -------------------------------------------------------- |
 | -------------------------------------------------------- |
 | --3-----------3-----------3-6--------------------------- |
 | --1-6-5--5--5-1-6-5--5--5-1-4-5--5--5--------------0--0- |
 | ----4-3--3--3---4-3--3--3-----3--3--3--0-1111-1111-0--0- |



RINGOUTS
 | ------------------------------------------- |
 | ------------------------------------------- |
 | ------------------------------------------- |
 | ------------------------------------------- |
 | --6-2...-----2-3-2...-----2--3--5--3--5--6- |
 | --4-0...-----0-1-0...-----0--1--3--1--3--4- |



 | ---------------------------------------------------------- |
 | ---------------------------------------------------------- |
 | ---------------------------------------------------------- |
 | ---------------------------------------------------------- |
 | --3-2...-----3-6-2...-----2-----------5--3--5--6...----5X- |
 | --1-0...-----1-4-0...-----0-0000-0000-3--1--3--4...----3X- |
PM                             .... ....


UGH
 | ----------------------------------------------------------------- |
 | ----------------------------------------------------------------- |
 | ----------------------------------------------------------------- |
 | --------------6-3-5--------------------------6-3-5-------6--6--6- |
 | -2---2--2-----4-1-3-2-2-2-6--3--2---2--2-----4-1-3-2-2-2-4--4--4- |
 | -0---0--0-000-------0-0-0-4--1--0---0--0-000-------0-0-0--------- |
PM         . ...       . . .              . ...       . . . 



 | ------------------------------------------------------------ |
 | ------------------------------------------------------------ |
 | ------------------------------------------------------------ |
 | --------------6-3-5----------------------------------------- |
 | -2---2--2-----4-1-3-2-2-2-6--3--2---2--2---------3-0-1-3-4*- |
 | -0---0--0-000-------0-0-0-4--1--0---0--0-000-000------------ |
PM         . ...       . . .              . ...      
*AH


 | ----------------------------------------------------------------- |
 | ----------------------------------------------------------------- |
 | ----------------------------------------------------------------- |
 | --------------6-3-5--------------------------6-3-5-------6--6--6- |
 | -2---2--2-----4-1-3-2-2-2-6--3--2---2--2-----4-1-3-2-2-2-4--4--4- |
 | -0---0--0-000-------0-0-0-4--1--0---0--0-000-------0-0-0--------- |
PM         . ...       . . .              . ...       . . . 



 | ------------------------------------------------------------- |
 | ------------------------------------------------------------- |
 | ------------------------------------------------------------- |
 | --------------6-3-5------------------------------------------ |
 | -2---2--2-----4-1-3-2-2-2-6--3--2---2--2----------5--3--5--6- |
 | -0---0--0-000-------0-0-0-4--1--0---0--0-000-000--3--1--3--4- | 
PM         . ...       . . .              . ...      



 | ----------------------------------------------------- |
 | ----------------------------------------------------- |
 | ----------------------------------------------------- |
 | --3-----------3-----------3-------------------------- |
 | --1-6-5--5--5-1-6-5--5--5-1-6-5--5--5--3-3--3-3-3--3- |
 | ----4-3--3--3---4-3--3--3---4-3--3--3--1-1--1-1-1--1- |




 | -------------------------------------------------------- |
 | -------------------------------------------------------- |
 | -------------------------------------------------------- |
 | --3-----------3-----------3-6--------------------------- |
 | --1-6-5--5--5-1-6-5--5--5-1-4-5--5--5--------------0--0- |
 | ----4-3--3--3---4-3--3--3-----3--3--3--0-1111-1111-0--0- |



RINGOUTS
 | ------------------------------------------- |
 | ------------------------------------------- |
 | ------------------------------------------- |
 | ------------------------------------------- |
 | --6-2...-----2-3-2...-----2--3--5--3--5--6- |
 | --4-0...-----0-1-0...-----0--1--3--1--3--4- |



 | ------------------------------------------- |
 | ------------------------------------------- |
 | ------------------------------------------- |
 | ------------------------------------------- |
 | --3-2...-----3-6-2...-----2-----------6--3- |
 | --1-0...-----1-4-0...-----0-0000-0000-4--1- |
PM                             .... ....


RINGOUT AGAIN 
 | ---------------------------0...---------------- |
 | ---------------------------0...---------------- |
 | ----------------------------------------------- |
 | --2...---------------------2...---------------- |
 | --2...------------3----6---2...--------6-----3- |
 | --0...----------0-1--0-4---0...------0-4---0-1- |
PM                 .    .                            


ONE GUITAR ONLY
 | ------------------------------------------------------------ |
 | ------------------------------------------------------------ |
 | ------------------------------------------------------------ |
 | --2------------------------------2-------------------------- |
 | --2------------------------------2------------------3-----6- |
 | --0--0-0-1-3-0-0-0-4-1-3-0-0-0-0-0--0-0-1-3-0-000-0-1--0--4- |




 | ------------------------------------------------------------ |
 | ------------------------------------------------------------ |
 | ------------------------------------------------------------ |
 | --2------------------------------2-------------------------- |
 | --2------------------------------2------------------6-----3- |
 | --0--0-0-1-3-0-0-0-4-1-3-0-0-0-0-0--0-0-1-3-0-000-0-4--0--1- |


'....MYSELF'
 | ------------------------------------------------------------ |
 | ------------------------------------------------------------ |
 | ------------------------------------------------------------ |
 | --2------------------------------2-------------------------- |
 | --2--2-2-3-5-2-2-2-6-3-5-2-2-2-2-2--2-2-3-5-2-2-2-2-3--2--6- |
 | --0--0-0-1-3-0-0-0-4-1-3-0-0-0-0-0--0-0-1-3-0-0-0-0-1--0--4- |
PM      . .     . . .       . . . .    . .     . . . .    .



 | ------------------------------------------------------------ |
 | ------------------------------------------------------------ |
 | ------------------------------------------------------------ |
 | --2------------------------------2-------------------------- |
 | --2--2-2-3-5-2-2-2-6-3-5-2-2-2-2-2--2-2-3-5-2-2-2-2-6--2--3- |
 | --0--0-0-1-3-0-0-0-4-1-3-0-0-0-0-0--0-0-1-3-0-0-0-0-4--0--1- |
PM      . .     . . .       . . . .    . .     . . . .    .




 | ---------0...--------------------------------------------------------------- |
 | ---------0...---------------------------8H10P8---8H10^12^10P8--------------- |
 | ------------------------------------7-9--------9--------------9------------- |
 | --2...---------------------2...--------------------------------------------- |
 | --2...------------3----6---2...-------------------------------------6-----3- |
 | --0...----------0-1--0-4---0...-----------------------------------0-4---0-1- |
PM                 .    .      
            
Submit corrections

comments powered by Disqus
↑ Back to top | Mark My Words Tabs for C-box. Lyrics for acoustic guitar and electric guitar. 1 Tablatures and chords are parodies/interpretations of the original songs. You may use it for private study, scholarship, research or language learning purposes only