» » »

Mark My Words, After A Fall Tabs (ver.1)

Artists:  A B C D E F G H I J K L M N O P Q R S T U V W X Y Z # 

After A Fall Tabs (ver.1)

Mark My Words Tabs
Rating:
0/5 (0 votes)
After A Fall lessons Tabs too difficult? Try these video lessons and learn fast
                AFTER A FALL

INTRO
D#------------------------------------------------------------------------|
A#------------------------------------------------------------------------|
F#------------------------------------------------------------------------|
C#-5-----8-7---------------------8-7--------------------------------------|
G#-3-5-6-6-5-0...----0-0-0-------6-5-0...----6-6-6--6--6--3-3-5--1-1-3--1-|
C#---5-6-----0...----0-0-0-----------0...----6-6-6--6--6--3-3-5--1-1-3--1-|
pm                 . .                     . .          . .    . .

---------------------------------------------------------------|
---------------------------------------------------------------|
---------------------------------------------------------------|
-----------------------8-7---------------------10-10-5--5--8---| PAUSE
-0...-----0-0-0--------6-5-0------6-6-6--6--6--8--8--3--3--6---|
-0...-----0-0-0------------0------6-6-6--6--6------------------|
pm        . .                     . .


VERSE
------------------------------------------------------------|
------------------------------------------------------------|
------------------------------------------------------------|
-7----------------8--------3--3-3--------------------8-5--5-|
-5-0--0-0-0--0--0-6-3--3-3-1--1-1-6--6-6-6--6-6-5----6-3--3-|
---0--0-0-0--0--0---3--3-3--------6--6-6-6--6-6-5--0--------|


----------------------------------------------------------------|
----------------------------------------------------------------|
----------------------------------------------------------------|
-7----------------8--------3--3-3---------------8-5--5-10-8--8--|
-5-0--0-0-0--0--0-6-3--3-3-1--1-1-6--6-6-6--6-6-6-3--3-8--6--6--|
---0--0-0-0--0--0---3--3-3--------6--6-6-6--6-6-----------------|


------------------------------------------------------------|
------------------------------------------------------------|
------------------------------------------------------------|
-7----------------8--------3--3-3--------------------8-5--5-|
-5-0--0-0-0--0--0-6-3--3-3-1--1-1-6--6-6-6--6-6-5----6-3--3-|
---0--0-0-0--0--0---3--3-3--------6--6-6-6--6-6-5--0--------|


---------------------------------------------------------------|
---------------------------------------------------------------|
---------------------------------------------------------------|
-7----------------8--------3--3-3---------------8-5--5-10-8--8-|
-5-0--0-0-0--0--0-6-3--3-3-1--1-1-6--6-6-6--6-6-6-3--3-8--6--6-|
---0--0-0-0--0--0---3--3-3--------6--6-6-6--6-6----------------|

BRIDGE
----------------------------------------------------------------|
----------------------------------------------------------------|
----------------------------------------------------------------|
-7-------7---5-7-8-------7---10-8-7-------7---5-7-7-8--8-8-7--7-|
-5-------5---3-5-6-------5---8--6-5-------5---3-5-5-6--6-6-5--5-|
---0-0-0---0-------0-0-0---0--------0-0-0---0-------------------|
PM . . .   .       . . .   .        . . .   .


----------------------------------------------------------------|
----------------------------------------------------------------|
----------------------------------------------------------------|
-7-------7---5-7-8-------7---10-8-7-------7---5-7-7-8--8-8-7--7-|
-5-------5---3-5-6-------5---8--6-5-------5---3-5-5-6--6-6-5--5-|
---0-0-0---0-------0-0-0---0--------0-0-0---0-------------------|
PM . . .   .       . . .   .        . . .   .

MOSHY sh*t
----------------------------------|
----------------------------------|
----------------------------------|
-7--------------------------------|
-5-0-0-0---000-0--000-0-1111-1111-|
---0-0-0---000-0--000-0-1111-1111-|
pm . .     ...    ...   .... ....

----------------------------------|
----------------------------------|
----------------------------------|
------------------------5555-5555-|
-6-0-0-0---000-0--000-0-3333-3333-|
-6-0-0-0---000-0--000-0-----------|
pm . .     ...    ...

----------------------------------|
----------------------------------|
----------------------------------|
-7--------------------------------|
-5-0-0-0---000-0--000-0-1111-1111-|
---0-0-0---000-0--000-0-1111-1111-|
pm . .     ...    ...   .... ....

----------------------------------|
----------------------------------|
----------------------------------|
------------------------5-----8-7-|
-6-0-0-0---000-0--000-0-3-5-6-6-5-|
-6-0-0-0---000-0--000-0---5-6-----|
pm . .     ...    ...


INSTEPPY sh*t
-------------------------------|
-------------------------------|
-------------------------------|
-----------------5-----8-7-----|
-0--0-0-0--0-0-0-3-5-6-6-5-5-6-|
-0--0-0-0--0-0-0---5-6-----5-6-|


-------------------------------|
-------------------------------|
-------------------------------|
-----------------5-----8-7-----|
-0--0-0-0--0-0-0-3-5-6-6-5-5-6-|
-0--0-0-0--0-0-0---5-6-----5-6-|


-------------------------------|
-------------------------------|
-------------------------------|
-----------------5-----8-7-----|
-0--0-0-0--0-0-0-3-5-6-6-5-5-6-|
-0--0-0-0--0-0-0---5-6-----5-6-|


-------------------------------|
-------------------------------|
-------------------------------|
-----------------5-----8-7-----|
-0--0-0-0--0-0-0-3-5-6-6-5-5-6-|
-0--0-0-0--0-0-0---5-6-----5-6-|

'SHUT YOUR MOUTH, Facist C...!'
------------------------------------------------------------------|
------------------------------------------------------------------|
------------------------------------------------------------------|
-7-------7---8---5-------7---10-8-7-------7---8---5-------5-----8-|
-5-------5---6---3-------5---8--6-5-------5---6---3-------3-5-6-6-|
---0-0-0---0---0---0-0-0---0--------0-0-0---0---0---0-0-0---5-6---|
PM . . .   .   .   . . .   .        . . .   .   .   . . .


------------------------------------------------------------------|
------------------------------------------------------------------|
------------------------------------------------------------------|
-7-------7---8---5-------7---10-8-7-------7---8---5-------5-----8-|
-5-------5---6---3-------5---8--6-5-------5---6---3-------3-5-6-6-|
---0-0-0---0---0---0-0-0---0--------0-0-0---0---0---0-0-0---5-6---|
PM . . .   .   .   . . .   .        . . .   .   .   . . .

'shut your mouth'
----------------------------------|
----------------------------------|
----------------------------------|
-7--------------------------------|
-5-0-0-0---000-0--000-0-1111-1111-|
---0-0-0---000-0--000-0-1111-1111-|
pm . .     ...    ...   .... ....

----------------------------------|
----------------------------------|
----------------------------------|
------------------------5555-5555-|
-6-0-0-0---000-0--000-0-3333-3333-|
-6-0-0-0---000-0--000-0-----------|
pm . .     ...    ...


----------------------------------|
----------------------------------|
----------------------------------|
-7--------------------------------|
-5-0-0-0---000-0--000-0-1111-1111-|
---0-0-0---000-0--000-0-1111-1111-|
pm . .     ...    ...   .... ....


----------------------------------|
----------------------------------|
----------------------------------|
------------------------5555-5555-|
-6-0-0-0---000-0--000-0-3333-3333-|
-6-0-0-0---000-0--000-0-----------|
   . .     ...    ...


yew!
            
Submit corrections

comments powered by Disqus
↑ Back to top | Mark My Words Tabs for After A Fall. Lyrics for acoustic guitar and electric guitar. Tablatures and chords are parodies/interpretations of the original songs. You may use it for private study, scholarship, research or language learning purposes only