» » »

Mark Lanegan, Riding The Nightingale Tabs (ver.1)

Artists:  A B C D E F G H I J K L M N O P Q R S T U V W X Y Z # 

Riding The Nightingale Tabs (ver.1)

Mark Lanegan Tabs
 Rating:
4/5 (4 votes)
Riding The Nightingale lessons Tabs too difficult? Try these video lessons and learn fast
1
                Mark Lanegan

e--------------------------------------------------|
b-------0-0--------0--0--------0--0--------0--0----|
g-----6--6-6-----6---6-6-----6---6-6-----6---6-6---|
d---6----------6-----------6-----------6-----------| Repeat
a-4----------4-----------4-----------4-------------|
E------------------------------------0-------------|
 |                                                |
 |                                                |
 |                                                |
 |                                                |
e--------------------------------------------------|
b-----------4-----------4-(0)-------4-----------4--|
g--------------------------------------------------|
d--------------------------------------------------|
a--------------------------------------------------|
E--------------------------------------------------|

e--------------------------------------------------|
b-------0-0--------0--0--------0--0--------0--0----|
g-----6--6-6-----6---6-6-----6---6-6-----6---6-6---|
d---6----------6-----------6-----------6-----------| Repeat
a-4----------4-----------4-----------4-------------|
E------------------------------------0-------------|
 |                                                |
 |                                                |
 |                                                |
 |                                                |
e--------------------------------------------------|
b-4----------4-----------4-----------4-------------|
g---6----------6-----------6-----------6-----------|
d-----6----------6-----------6-----------6---------|
a--------------------------------------------------|
E--------------------------------------------------|


e-2-2-x-2-2-x-2-2-x-2-2-x-2-2-x--------------------|
b-2-2-x-2-2-x-2-2-x-2-2-x-2-2-x--------------------|
g-3-3-x-3-3-x-3-3-x-3-3-x-3-3-x--------------------|
d-4-4-x-4-4-x-4-4-x-4-4-x-4-4-x--------------------|
a-4-4-x-4-4-x-4-4-x-4-4-x-4-4-x--------------------|
E-2-2-x-2-2-x-2-2-x-2-2-x-2-2-x--------------------|
 |                                                |
 |                                                |
 |                                                |
e-6-x-6-6-x-6-6-x-6-x-6-6-x-6-6--------------------|
b-7-x-7-7-x-7-7-x-7-x-7-7-x-7-7--------------------|
g-6-x-6-6-x-6-6-x-6-x-6-6-x-6-6--------------------|
d--------------------------------------------------|
a--------------------------------------------------|
E--------------------------------------------------|

 |                                                |
 |                                                |
 |                                                |
 |                                                |
e--------------------------------------------------|
b-9--9---9--9---9--9----9--9---9--9---9--9---------|
g--11-11--11-11--11-11---11-11--11-11--11-11-------|
d--------------------------------------------------|
a--------------------------------------------------|
E--------------------------------------------------|

There are a few variations in the song but they shouldn't be too hard to figure out.
            
Submit corrections

comments powered by Disqus
↑ Back to top | Mark Lanegan Tabs for Riding The Nightingale. Lyrics for acoustic guitar and electric guitar. 1 Tablatures and chords are parodies/interpretations of the original songs. You may use it for private study, scholarship, research or language learning purposes only