» » »

Out Of Nowhere Tabs (ver.1)

Artists:  A B C D E F G H I J K L M N O P Q R S T U V W X Y Z # 

Out Of Nowhere Tabs (ver.1)

Mark Lanegan
Rating:
5/5 (1 vote)

Hard to play? Try these video lessons and learn fast.
                Tuning: Standard


I saw the other guys tab for this song, which was alright for a very first
tab, but there were some complicated chords that he wasn’t picking up.
Here is the correct version.


Intro:

    E                                                Fmaj7dim5
e|------------------------------------------------|----------------------------------------------|
B|--------------------------0---------------------|--------------------------0-------------------|
G|-----------1--------------------------1---------|-----------2--------------------------2-------|
D|-----------------2--------------2-----------2---|-----------------3--------------3-----------3-|
A|--------2-----------2---------------------------|--------3-----------3-------------------------|
E|--0---------------------------------------------|--1-------------------------------------------|
 |                                                                                               |
e|-----------0------------------------------------|-----------0----------------------------------|
B|-----------0------------------------------------|-----------0----------------------------------|
G|--------1---------------------------------------|--------2-------------------------------------|
D|-----2------------------------------------------|-----3----------------------------------------|
A|------------------------------------------------|----------------------------------------------|
E|--0---------------------------------------------|--1-------------------------------------------|x2


Verse 1:

    E                                                Fmaj7dim5
e|------------------------------------------------|----------------------------------------------|
B|--------------------------0---------------------|--------------------------0-------------------|
G|-----------1--------------------------1---------|-----------2--------------------------2-------|
D|-----------------2--------------2-----------2---|-----------------3--------------3-----------3-|
A|--------2-----------2---------------------------|--------3-----------3-------------------------|
E|--0---------------------------------------------|--1-------------------------------------------|
 |                                                                                               |
e|-----------0------------------------------------|-----------0----------------------------------|
B|-----------0------------------------------------|-----------0----------------------------------|
G|--------1---------------------------------------|--------2-------------------------------------|
D|-----2------------------------------------------|-----3----------------------------------------|
A|------------------------------------------------|----------------------------------------------|
E|--0---------------------------------------------|--1-------------------------------------------|x2

    Am                                               Fmaj/A
e|--------------------------0---------------------|--------------------------0-------------------|
B|-----------1--------------------------1---------|-----------1--------------------------1-------|
G|-----------------2--------------2-----------2---|-----------------2--------------2-----------2-|
D|--------2-----------2---------------------------|--------3-----------3-------------------------|
A|--0---------------------------------------------|--0-------------------------------------------|
E|------------------------------------------------|----------------------------------------------|
 |                                                                                               |
e|-----------0------------------------------------|-----------0----------------------------------|
B|-----------1------------------------------------|-----------1----------------------------------|
G|--------2---------------------------------------|--------2-------------------------------------|
D|-----2------------------------------------------|-----3----------------------------------------|
A|--0---------------------------------------------|--0-------------------------------------------|
E|------------------------------------------------|----------------------------------------------|x2

    C                                                G
e|--------------------------0---------------------|--------------------------3-------------------|
B|-----------1--------------------------1---------|-----------0----------------------------------|
G|-----------------0--------------2-----------2---|-----------------0----------------------------|
D|--------2-----------2---------------------------|--------0-----------0-------------------------|
A|--3---------------------------------------------|----------------------------------------------|
E|------------------------------------------------|--3-------------------------------------------|
 |                                                                                               |
e|-----------0------------------------------------|-----------3----------------------------------|
B|-----------1------------------------------------|-----------0----------------------------------|
G|--------0---------------------------------------|--------0-------------------------------------|
D|-----2------------------------------------------|-----0----------------------------------------|
A|--3---------------------------------------------|----------------------------------------------|
E|------------------------------------------------|--3-------------------------------------------|

    Am
e|------------------------------------------------|
B|------------------------------------------------|
G|------------------------------------------------|
D|------------------------------------------------|
A|--3-----2-----0---------------------------------|
E|------------------------------------------------|


Rest of the song:

It keeps the same structure as Verse 1 but just strum the chords instead of picking.  Enjoy!
            
Hard to play? Try these video lessons and learn fast. | Correct




comments powered by Disqus
↑ Back to top | Tablatures and chords are parodies/interpretations of the original songs. You may use it for private study, scholarship, research or language learning purposes only