» » »

Mark Lanegan, Hit The City Bass tabs (ver.1)

Artists:  A B C D E F G H I J K L M N O P Q R S T U V W X Y Z # 

Hit The City Bass tabs (ver.1)

Mark Lanegan Tabs
 Rating:
4.5/5 (8 votes)
Hit The City lessons Tabs too difficult? Try these video lessons and learn fast
                ========================================================================================  

Tuning: Standard (EADG)

  Okay, this is a simple, yet amazingly good song. What a riff.
Of course the tuning is arguable, seeing as these guys are known
for playing in C, but just for the sake of ease, I'm tabbing it 
in standard. By all means, transpose to your heart's content. I'm
fairly sure its correct.

  To get a sound similar to what is achieved on the album, I use
some tasteful overdrive. If you don't mind picks, try all downstrokes.

  I've also included the correct lyrics.


  Fig. 1 (Verses)
G|------------------------------6--------------------------------------------|
D|------------------4-4-4-4-6/8---8\------------------------------6----------|
A|-6-6-6-6-6-6-6-6--------------------4-4-4-4-4-4-4-4-4-4-4-4-6/8---8\-------|
E|---------------------------------------------------------------------------|


  Fig. 2 (Pre-Chorus)
G|---------------------------------------------------------------------------|
D|------------------4-4-4-4-4-4-4-4-------------------6-6-6-6-6-6-6-6--------|
A|-6-6-6-6-6-6-6-6-------------------4-4-4-4-4-4-4-4-------------------------|
E|---------------------------------------------------------------------------|

                                                             _______________  __________
  Fig. 3 (Chorus)                                           |a.              |b.
G|----------------------------------------------------------|----------------|-----8----|
D|------------------4-4-4-4-4-4-4-4-6-6-6-6-6-6-6-6-6-6-6-6-|6-6-6-6-6-6-6-6-|-6/8---8\-|
A|-6-6-6-6-6-6-6-6------------------------------------------|----------------|----------|
E|----------------------------------------------------------|----------------|----------|



Intro: Fig.1 x 2

Fig. 1
The dark descends through the promised land

Fig. 1
Down kingdom come and the acid ban

Fig. 2
I'm Babylon burned inside out, nothing to kill it

Fig 3b
I hit the city

Fig. 1
In Marianne I dug a hole

Fig. 1
And watched her trip on my hollow soul

Fig. 2
And in the end all that crawled was my skin, I couldn't kill it

Fig.3a         
I hit the city, I hit the city

Fig.3a  ,  Fig. 1 x 2
[ Guitar Solo ]

The ghost arrives at his bitter end

To the promised land and the dark descent

I'm Babylon burned inside out, nothing to kill it

I hit the city...

 


 The last verse and chorus are the same as the others,
play fig. 3a forever until you...

end on A|-6-



Thanks for viewing, feel free to email with questions, comments, concerns.

 /  slide up
 \  slide down
 h  hammer-on
 p  pull-off
 ~  vibrato
 +  harmonic
 x  Mute note
============================================================================================
            
Submit corrections

comments powered by Disqus
↑ Back to top | Mark Lanegan Bass for Hit The City. Lyrics for acoustic guitar and electric guitar. Tablatures and chords are parodies/interpretations of the original songs. You may use it for private study, scholarship, research or language learning purposes only