» » »

Mark Knopfler, Done With Bonaparte Tabs (ver.1)

Artists:  A B C D E F G H I J K L M N O P Q R S T U V W X Y Z # 

Done With Bonaparte Tabs (ver.1)

Mark Knopfler Tabs
 Rating:
4.3/5 (6 votes)
Done With Bonaparte lessons Tabs too difficult? Try these video lessons and learn fast
                Intro: w/Fig.1
Bb | Eb | Cm | F :|X3 Bb | Eb | F | Bb

 Fig.1                                       1.
|---------------------------------------------------------------------------|
|--------------------11-13-- 11-13-15---15---15-13-11-----------------------|
|.10-12----12--10-12------------------------------------12--10-12-14--12-10-|
|.------12------------------------------------------------------------------|
|---------------------------------------------------------------------------|
|---------------------------------------------------------------------------|

 2.                            End Fig.1
|--------------------------------------|
|-15----15-13-11-13----11H13-11--------|
|--------------------------------------|
|--------------------------------------|
|--------------------------------------|
|--------------------------------------|

Verse:
Gm | Bb | F | Eb | Gm | Bb | F | Eb F Bb | Eb Bb | Gm | Bb Cm | Eb
            
Submit corrections

comments powered by Disqus
↑ Back to top | Mark Knopfler Tabs for Done With Bonaparte. Lyrics for acoustic guitar and electric guitar. Tablatures and chords are parodies/interpretations of the original songs. You may use it for private study, scholarship, research or language learning purposes only