>
 >
Darling Pretty

Darling Pretty Guitar Tabs

Mark Knopfler - Darling Pretty chords, tabs, tablatures, lyrics

Guitar lessons | Add/correct | Request | Top 50 tabs Artists:  A B C D E F G H I J K L M N O P Q R S T U V W X Y Z 0-9

Darling Pretty Guitar Tabs – Mark Knopfler

CD, Sheet music, Poster

Do you like Darling Pretty? Share with your friends now
ChordsTabsUkulele

Solo #1:
-----------------------------------------------------------------------|
---10--9-------------------------10h12-10p9----9-----------------------|
-/9-----11-9-11---9h11-9--9-9---9----------11-9-11-11--9h11-11b13r11---|
------------------------11---------------------------------------------|
-----------------------------------------------------------------------|
-----------------------------------------------------------------------|

-----------------------------------------------------------------------|
-----10-9--------------------------------------------------------------|
-9--9----11-9-11---9h11-9h11p9--9-----6-9p6----------------------------|
--11--------------------------11----/7-------9b11r9p7-9-7--------------|
-----------------------------------------------------------------------|
-----------------------------------------------------------------------|

Solo #2:
-----------------------------------------------------------------------|
-----10--9-----------------------12b14--12-10-9-12-10-9----------------|
----9-----11--9-9h11-9h11-9--9-------------------------11-11-----------|
-/11-----------------------11------------------------------------------|
-----------------------------------------------------------------------|
-----------------------------------------------------------------------|

-----------------------------------------------------------------------|
--------------9-10h12-10p9------------------------------7--------------|
-9-11-11b13-11------------11p9-11---9h11-9--9--------6-9---------------|
------------------------------------------11----7p6h7-----9-7-9b11-----|
-----------------------------------------------------------------------|
-----------------------------------------------------------------------|

---------------|
---------------|
---------------|
-9p7h9-7-------|
---------------|
---------------|

Outtro:
-----------------------------------------------------------------------|
------10----10-12b14b12p10--10\9-9h10p9----9-10-9-----12b14--12b14r12--|
-12b14----11---------------------------11--9-11-11---9-----------------|
-----------------------------------------------------------------------|
-----------------------------------------------------------------------|
-----------------------------------------------------------------------|

-----------------------------------------------------------------------|
-10h12-10-10--10h12-10h12p10\9h10p9----------------------------10-12---|
--------------------------------------9h11-9h11b13r11p9----9h11--------|
---------------------------------------------------------11------------|
-----------------------------------------------------------------------|
-----------------------------------------------------------------------|

-----------------------------------------------------------------------|
-12b14r12p10h12-10--10-12--12b14r12-10h12-10----10-12b14-12-10-12------|
------------------11--------------------------11-----------------------|
-----------------------------------------------------------------------|
-----------------------------------------------------------------------|
-----------------------------------------------------------------------|

------9-10-9-------------10-12-10-9-----12---------12-12h14------------|
-12b14------12-10-10---10----------12-----14-12------------15----------|
---------------------11------------------------14----------------------|
-----------------------------------------------------------------------|
-----------------------------------------------------------------------|
-----------------------------------------------------------------------|

-14b16r14p12------------14--17p14--14----------------------------------|
-------------14h17-17b19---------14--17b19-17---15h17p15p14-15h17------|
-----------------------------------------------------------------14-14-|
-----------------------------------------------------------------------|
-----------------------------------------------------------------------|
-----------------------------------------------------------------------|

-----------------------------------------------------------------------|
----------14-----15--14--14--------------------------------15h17p15----|
-16-16b18---16-14------16---16p14h16-16b18-16-16b18r16p14--------------|
---------------------------------------------------------16------------|
-----------------------------------------------------------------------|
-----------------------------------------------------------------------|

-----------------------------------------------------------------------|
-14-----17-17-17--15p14-15---15-14-------------------------------------|
---16----------------------16------------------------------------------|
-----------------------------------------------------------------------|
-----------------------------------------------------------------------|
-----------------------------------------------------------------------|

Hope it's of some use.

-KEW





Comments


Popular Mark Knopfler tabs & chords
A Night In Summer Long Ago Chords
Rollin On Chords
Silvertown Blues Chords
What It Is 1 Chords
Cannibals Tabs
Metroland Tabs
Piper To The End Intro Tabs
Cannibals Ukulele
Lily Of The West Ukulele
Ragpickers Dream Ukulele


Song lyrics



↑ Back to top | Tablatures and chords are parodies/interpretations of the original songs. You may use it for private study, scholarship, research or language learning purposes only
© 2014 AZChords.com Contact us | Privacy policy | DMCA | Add/correct tabs | Request tabs | Top 50 tabs