» » »

Mark Knopfler, Classical Gas Tabs (ver.1)

Artists:  A B C D E F G H I J K L M N O P Q R S T U V W X Y Z # 

Classical Gas Tabs (ver.1)

Mark Knopfler Tabs
 Rating:
3.5/5 (8 votes)
Classical Gas lessons Tabs too difficult? Try these video lessons and learn fast
                (Intro)
----------------------------------------------------------------------------
                    Classical Gas - Mark Knopfler
----------------------------------------------------------------------------

Tuning:Standard

I know Mark Knopfler didn't play this song but the place I got it said it did, it 
is really the Eric Clapton version and I just tried to simplify it.
e|----------------------------------------------------------------| 
B|---1-----1---------0-------------0------------------------------|
G|------2----------0-------------0------2----0-------2------------|
D|-------------------------------------------------2--------------| 
A|---0-------------------------------------------0----------------|
E|--------------3-------2-----0-----------------------------------| 

e|----------------------------------------------------------------------| 
B|------------0h1--------0h1------------0-----------0-----------------0-| 
G|-------2-----------2----------------0-----------0-----2---0---0h2-----| 
D|----------------------------------------------------------------------| 
A|---0------------------------------------------------------------------|
E|---------------------------------3-------2---0------------------------| 

e|--------------------------------------------0-------------------------|
B|---------------------------------------3------------3---1----3----1--0|
G|-------2----------0-------0-------0-------------0-------2-------------| 
D|-----2----------0-------0---------------------------------------2-----| 
A|---0------------------0-------2-------------3-------------------------| 
E|-------------3--------------------------------------------------------|
     
e||----------------------------------------------------------------------|
B||--0h1p0-1---1-------------------------------------0------------0------| 
G||----------2-----2p0----------0-------0------0--------2--0--2------2---| 
D||---------------------------0-------0------0---------------------------| 
A||--0---------------------------------------------------------------0---| 
E||------------------------3--------2------0---------0-------------------| 
Repeat 4 times 
e|--------------------------------||-------------------------------------| 
B|--------------------------------||--------0----------------------------| 
G|------2-------2--------2------2-||------2---2---------0------0----0----| 
D|---2--------2--------2------2---||----2------2p0----0------0-----0-----| 
A|----------0--------0------0-----||--0----------------------------------| 
E|--------------------------------||----------------3-------2-----0------| 

e|-----------------------------------------------------------------------| 
B|---0------------0------------------------------------------------------| 
G|------2--0--2--------2-------------------------------------------------|
D|-----------------------------------------------------------------------| 
A|---------------------0-------------------------------------------------| 
E|---0-------------------------------------------------------------------| 

Thats as far as i can translate so far please rate it thanks! 
| p pull off
| / slide up
| \ slide down
| h hammer-on
            
Submit corrections

comments powered by Disqus
↑ Back to top | Mark Knopfler Tabs for Classical Gas. Lyrics for acoustic guitar and electric guitar. Tablatures and chords are parodies/interpretations of the original songs. You may use it for private study, scholarship, research or language learning purposes only