» » »

Mark Knopfler, Brothers In Arms Tabs (ver.1)

Artists:  A B C D E F G H I J K L M N O P Q R S T U V W X Y Z # 

Brothers In Arms Tabs (ver.1)

Mark Knopfler Tabs
 Rating:
4/5 (4 votes)
Brothers In Arms lessons Tabs too difficult? Try these video lessons and learn fast
                "(Live)
(Intro)
-------------------------------------------------------------------------------
                                         Brothers in Arms - Dire Straits
-------------------------------------------------------------------------------

Tuning: Standard

[INTRO]
e|---------------------------------------------------------------------------|
B|---------------------------------------------------------------------------|
G|-----------------------------------------4--6--4---------------------------|
D|---------6--8--6-----6h8p----------4--6------------6-4-/6------------------|
A|--4/6----------------------------------------------------------------------|
E|---------------------------------------------------------------------------|

e|---------------------------------------------------------------------------|
B|----4---------------4-7-4----4---------------------------------------------|
G|---4--6-------6b7----------6---6-4\3---------------------------------------|
D|---------------------------------------6-6-4-------------------------------|
A|---------------------------------------------------------------------------|
E|---------------------------------------------------------------------------|

e|---------------------------------------------------------------------------|
B|---------------------------------------------------------------------------|
G|-------4--3----------------------------------------------------------------|
D|--------------6--4----------------4/6--------------------------------------|
A|--------------------6--4--6---2--------------------------------------------|
E|---------------------------------------------------------------------------|
[VOCALS]

************************************

| /   slide up
| \   slide down
| h   hammer-on
| p   pull-off
| ~   vibrato
| +   harmonic
| x   Mute note
| b   Bend
| pb  Pre-bend
| br  Bend release
| pbr Pre-bend release
| brb Bend release bend

************************************

[Tab Notes]

This is my first tab (wasn't easy as i still class myself as a beginner playing 5 years)..
in my opinion It is the nicest sound from the many different intros mark uses's in his
may need too,
to play this tab...
"            
Submit corrections

comments powered by Disqus
↑ Back to top | Mark Knopfler Tabs for Brothers In Arms. Lyrics for acoustic guitar and electric guitar. Tablatures and chords are parodies/interpretations of the original songs. You may use it for private study, scholarship, research or language learning purposes only