» » »

Mark Knopfler, Boom Like That Bass tabs (ver.1)

Artists:  A B C D E F G H I J K L M N O P Q R S T U V W X Y Z # 

Boom Like That Bass tabs (ver.1)

Mark Knopfler Tabs
 Rating:
4/5 (4 votes)
Boom Like That lessons Tabs too difficult? Try these video lessons and learn fast
                G|--------------------------------------------3--3----------------|
D|------------------------1--1----------------------1--1----------|
A|----------1--1-----3------------------1-1-----------------------| X3
E|--3-------------------------------3-----------------------------|

G|--------------------------------------------3--3-----------|
D|--------------------------------------------------1-1------|
A|----------1--1-----3----1--1----------1-1-------------1-0--|
E|--3-------------------------------3------------------------|

G|--------------------------------------------3--3----------------|
D|------------------------1--1----------------------1--1----------|
A|----------1--1-----3------------------1-1-----------------------| 
E|--3-------------------------------3------------------------3\---|

G|--------------------------------------------3---0-3-0-----------|
D|------------------------1--1--------------------------1---------|
A|----------1--1-----3------------------1-1---------------1-0-----| 
E|--3-------------------------------3-----------------------------|

G|--------------------------------------------3--3----------------|
D|------------------------1--1----------------------1--1----------|
A|----------1--1-----3------------------1-1-----------------------|
E|--3-------------------------------3-----------------------------|

G|------------------------  ----------------------------|
D|----rest----------------  ----------------------------|
A|----------------1---3---X2----------------------------|
E|------------------------  ----------------------------|

G|--------------------------------------------3--3-----------|
D|--------------------------------------------------1-1------|
A|----------1--1-----3----1--1----------1-1-------------1-0--|
E|--3-------------------------------3------------------------|

G|--------------------------------------------3--3----------------|
D|------------------------1--1----------------------1--1----------|
A|----------1--1-----3------------------1-1-----------------------|
E|--3-------------------------------3-----------------------------|

G|----------------------------------------------------------------|
D|------------------------1--1------------------------------------|
A|----------1--1-----3--------------------------------------------|
E|--3-------------------------------3-----------------------------|

G|--------------------------------------------3--3----------------|(GTR. Solo)
D|------------------------1--1----------------------1--1----------|
A|----------1--1-----3------------------1-1-----------------------| X3
E|--3-------------------------------3-----------------------------|

G|--------------------------------------------3--3-----------|
D|--------------------------------------------------1-1------|
A|----------1--1-----3----1--1----------1-1-------------1-0--|
E|--3-------------------------------3------------------------|

G|--------------------------------------------3--3----------------|
D|------------------------1--1----------------------1--1----------|
A|----------1--1-----3------------------1-1-----------------------| X3
E|--3-------------------------------3-----------------------------|

G|----------------------------------------------------------------|
D|------------------------1--1------------------------------------|
A|----------1--1-----3--------------------------------------------|
E|--3-------------------------------3-----------------------------|

G|--------------------------------------------3--3----------------|
D|------------------------1--1----------------------1--1----------|
A|----------1--1-----3------------------1-1-----------------------| X2
E|--3-------------------------------3-----------------------------|

G|--------------------------------------------3---0-3-0-----------|
D|------------------------1--1--------------------------1---------|
A|----------1--1-----3------------------1-1---------------1-0-----| 
E|--3-------------------------------3-----------------------------|

G|--------------------------------------------3--3----------------|
D|------------------------1--1----------------------1--1----------|
A|----------1--1-----3------------------1-1-----------------------|
E|--3-------------------------------3-----------------------------|

G|-------------------  --------------------------0----0--0-------------------|
D|----rest-----------  -----------------5---------------------1--1---3-3--3--|
A|-----------1---3---X2---------1--3------5----------------------------------|
E|-------------------  -----3------------------------------------------------|

G|--------------------------------------------3--3-----------|
D|--------------------------------------------------1-1------|
A|----------1--1-----3----1--1----------1-1-------------1-0--|
E|--3-------------------------------3------------------------|


G|--------------------------------------------3--3----------------|
D|------------------------1--1----------------------1--1----------|
A|----------1--1-----3------------------1-1-----------------------| 
E|--3-------------------------------3-----------------------------|

G|----------------------------------------------------------------|
D|------------------------1--1------------------------------------|
A|----------1--1-----3--------------------------------------------|
E|--3-------------------------------3-----------------------------|


G|--------------------------------------------3--3----------------|
D|------------------------1--1----------------------1--1----------|
A|----------1--1-----3------------------1-1-----------------------| 
E|--3-------------------------------3-----------------------------|

Play that until solo fades out.
            
Submit corrections

comments powered by Disqus
↑ Back to top | Mark Knopfler Bass for Boom Like That. Lyrics for acoustic guitar and electric guitar. Tablatures and chords are parodies/interpretations of the original songs. You may use it for private study, scholarship, research or language learning purposes only