>
 >
Beachcombing

Beachcombing Guitar Tabs

Mark Knopfler - Beachcombing chords, tabs, tablatures, lyrics

Guitar lessons | Add/correct | Request | Top 50 tabs Artists:  A B C D E F G H I J K L M N O P Q R S T U V W X Y Z 0-9

Beachcombing Guitar Tabs – Mark Knopfler

CD, Sheet music, Poster

Do you like Beachcombing? Share with your friends now
Tabs
Mark Knopfler - Beachcombing

Intro:
C     D        C           D         C                D      C
-0-------|---|---|-----0-------|---|---|-------0-----|-----------|
-----1^3-|---|---|-1^3---1-3---|---|---|-3~(5)---1-3-|-5^3-------|
---------|---|---|-----------2-|---|---|-------------|-----5-2-5-|
---------|---|---|-------------|---|---|-------------|-----------|
---------|---|---|-------------|---|---|-------------|-----------|
---------|---|---|-------------|---|---|-------------|-----------|
 
Verse 1: 
C                                                    F
They say there's wreckage washing up all along the coast 
             C              F
No one seems know too much,    or got hit the most 
C                                                F
   Nothing has been spoken, there's not alot to see 
                         C     G
But something has been broken,    that's how feels to me 

Verse 2:
C                                       F
   We had a harmony, I never meant to small boats 
              C         F
Lying out in the water,    like a slick of oil 
C                                              F
Tide is running out to sea, under a darkening sky 
                 C                   Am                  G
The night is falling down on me, and I'm a thinking that I should head on 

Chorus:
F        C                  F
Head on home (been gone to long) 
           C   F            C
Gone too long,    leave my roam 
C
    Beachcombing 

Fill:
-0-|---|---0-----0---|---|------0----|-------------|
-1-|-3-|-1---3-1---3-|---|-3~(5)---3-|---3~(5)~3^1-|
---|---|-------------|-2-|-----------|-------------|
---|---|-------------|---|-----------|-------------|
---|---|-------------|---|-----------|-------------|
---|---|-------------|---|-----------|-------------|
Verse 3:
C                                                F
Little wild kitten out hunting, see what he can get 
                  C  F           
You're in a big city,   that won't stop growing yet 
     C                                         F
The sun is goin' down smokin', a flaming testiment 
                     C    G
Something has been broken,  and it feels permenant. 


Verse 4:
C                                                       F
   The little seabird flying, he knows were he wants to go 
                  C             F
Quess I ought to pack my stuff,    and do the thing I know 
C                                                    F
   Turn around and head on back, along the old sea walls 
                 C              G                 
I felt somthing give and crack,    and now I'm sorry that's all head on 

Chorus:
F        C                  F
Head on home (been gone to long) 
          C    F            C
Gone too long,    leave my roam 
C
 
Last solo:
-0-|---|-----0-------|---|-------0---|-------------|---|---|---|-3^2^0----|
-1-|-3-|-1^3---1^3---|---|--3~(5)-3-|-1-3~(5)~3^1-|---|---|---|-------3>5|
---|---|-----------2-|---|-x---------|-------------|---|---|---|----------|
---|---|-------------|---|-----------|-------------|---|---|---|----------|
---|---|-------------|---|-----------|-------------|---|---|---|----------|
---|---|-------------|---|-----------|-------------|---|---|---|----------|
 
-3>5>2-|------0----0---|-------------|---------------|---|-5-3-|---|
-------|-3~(5)---1---3-|-3~(5)~3^1---|---1---1-1-----|---|-----|---|
-------|---------------|-------------|-2---2---0-2-0-|---|-----|---|
-------|---------------|-------------|---------------|---|-----|---|
-------|---------------|-------------|---------------|---|-----|---|
-------|---------------|-------------|---------------|---|-----|---|
 
-----------|----------|---------------|-----------|---|------|
-5^6-6>8---|-7^8-8>10-|-5-5---5>13-13-|---13>10---|---|-10>7-|
-5^7-7>9---|-7^9-9>11-|-5-5---5>12-13-|---12------|---|------|
-----------|----------|---------------|-----------|---|------|
-----------|----------|---------------|-----------|---|------|
-----------|----------|---------------|-----------|---|------|





Comments


Popular Mark Knopfler tabs & chords
Good As Gold Chords
Secondarty Waltz Chords
If This Is Goobye Tabs
Prairie Wedding Tabs
Tahitian Sky Tabs
Walk Of Life Tabs
Wanderlust Intro Tabs
I Used To Could Ukulele
My Claim To Fame Ukulele
Sands Of Nevada Ukulele


Song lyrics



↑ Back to top | Tablatures and chords are parodies/interpretations of the original songs. You may use it for private study, scholarship, research or language learning purposes only
© 2014 AZChords.com Contact us | Privacy policy | DMCA | Add/correct tabs | Request tabs | Top 50 tabs