» » »

Baloney Again Tabs (ver.1)

Artists:  A B C D E F G H I J K L M N O P Q R S T U V W X Y Z # 

Baloney Again Tabs (ver.1)

Mark Knopfler
Rating:
5/5 (1 vote)

Hard to play? Try these video lessons and learn fast.
                
Outro solo is very blues driven and features multiple hints of the B harmonic minor 
(BC#DEF#GA#B). Have some fun with it. Starts at about 3'10".

------------------------------------------------------------------|
--------------------7-------------------------------10p7----------|
--------7---9-7-9b11---9-7-9--7h9-9b11r9p7h9-7-----------9b11-9-7-|
-9p7--9--9------------9-----------------------9-9-----------------|
------------------------------------------------------------------|
------------------------------------------------------------------|
3'25"
-------------------------------------------------|
------------------7------7-8-7--7----------------|
-9b11r9p7~~----7h9--7----------9-9-7\6-----------|
--------------9-------8----------------8---------|
-----------------------------------------9-------|
-------------------------------------------------|
3'33"
---------------------------------------------------------------------|
---------------------------------------------------------------------|
---11-9--7h9-9b11r9p7h9--7-------6--7-9b11r9p7--9p7-7h9-7h9-7h9p7----|
--X-----------------------9-9---9--------------------------------9---|
-X-------------------------------------------------------------------|
---------------------------------------------------------------------|
3'43"
-------------------------------------------------------------------|
-------------------------------------------------------------------|
-9-7-------7-9b11r9p7h9--7----------------4h7p4--------------------|
-----9-7h9----------------8--------------X------7------------------|
---------------------------9--5h7-5h7-5-X-------7h9p7h9--5h7-------|
------------------------------------------------------------5h7~-5-|
3'55"
------------------------------------------------------------|
------------------------------------------------------------|
---7--7-------7---7-6h7---------7--------------7-9p7--------|
--X-----9-7h9~---------9--7h9--9--9--7h9------9------9-7h9--|
-X----------------------------9---------7\5-----------------|
------------------------------------------------------------|
4'09"
------------------------------------------------------------|
-----------------------------7-8-7--7-----------------------|
-7-9b11r9p7h9--7/9--9-7--9b11------9-9-7\6------------------|
---------------7/9-------------------------8----------------|
---------------------------------------------9--------------|
------------------------------------------------------------|
4'17"               *********
--------------------7---------------------------------------|
-----7-------------X--11-10-7-------------------------------|
-9b11----9-7h9----X----------9p7h9--7-9b11r9p7--9p7h9-------|
---------------9--------------------------------------------|
------------------------------------------------------------|
------------------------------------------------------------|
4'28"
-----------------------------------------------------------|
-----------------------------------------------------------|
-4--4h7--4--4----6b7--6-4----------------------------------|
---7------7---7-----------7-4--4----------7---7----7-------|
------------------------------7--5/7------7h9-7h9--7h9p7h9-|
-------------------------------------5/7-------------------|
4'35"
-----------------------|
-----------------------|
-----------------------|
-----------------------|
-5h7--7h5--------------|
---------7~~~----------|

*****: This part is a little bit tricky, but with a little practice, this part of the 
can be played with ease. Other than that, this should not be too difficult.

Hope it's of some use.

-KEW
            
Hard to play? Try these video lessons and learn fast. | Correct




comments powered by Disqus
↑ Back to top | Tablatures and chords are parodies/interpretations of the original songs. You may use it for private study, scholarship, research or language learning purposes only