>
 >
All That Matters

All That Matters Guitar Tabs

Mark Knopfler - All That Matters chords, tabs, tablatures, lyrics

Guitar lessons | Add/correct | Request | Top 50 tabs Artists:  A B C D E F G H I J K L M N O P Q R S T U V W X Y Z 0-9

All That Matters Guitar Tabs – Mark Knopfler

CD, Sheet music, Poster

Do you like All That Matters? Share with your friends now
ChordsTabsTabs v2Ukulele
All that matters
Mark knopfler

Tuning:Standard
This might not be exactly right but its pretty close
                                                       
e|--------------------------------------------------------------------------|
B|--------6----9---8---6-------------6------9--8----6-----------------------|
G|-----7---------------------------7---------------------8--10--8------8----|
D|--8----------------------8-----8---------------------8-----------5h6----1-|
A|--------------------------------------------------------------------------|
E|--------------------------------------------------------------------------|

Eb
My darling girl 
Bb               Eb
My darling girl 
Eb        
You're all that matters 
Bb                   Ab
In this wicked world 
Bb 
All that matters 

e|----------------|
B|--6-------------|
G|----7-----------|
D|------8---------|
A|----------------|
E|----------------|

Ab            Bb
All that matters 

e|----------------|
B|---------6------|
G|----7--8--------|
D|--8-------------|
A|----------------|
E|----------------|

Eb
My darling boy 
Bb               Eb
My darling boy 
Eb
All of my sunshine 
Bb                   Ab
And all of my joy 
Bb                     Ab
You're all that matters 
e|----------------|
B|--6-------------|
G|----7b8b7-------|
D|----------------|
A|----------------|
E|----------------|

Eb
All that matters 

e|----------------|
B|----------------|
G|---------8------|
D|-5h6---8--------|
A|----------------|
E|----------------|

Eb                          
Well, I can't stop the pain 
Ab
When it calls 
Bb
I'm a man 
        ~~~
e|---------------|
B|--11-----------|
G|------10-------|
D|---------------|
A|---------------|
E|---------------|

Cm
And I can't stop the rain 
Ab
When it falls, my darling 
Bb
Who can? 

e|------------------------|
B|-----6---8b9-8----6-----|
G|---7--------------------|
D|-8--------------------8-|
A|------------------------|
E|------------------------|

Eb
My darling girl 
Bb              Eb
My darling girl 
Eb
You're all that matters 
Bb                      Ab
In this wicked world 
Bb
All that matters 

e|---------------|
B|--11-----------|
G|-----7----------|
D|--------8-------|
A|----------------|
E|----------------|

Eb
All that matters 
e|----------------|
B|----------------|
G|--------8-------|
D|--5h6-----1-----|
A|----------------|
E|----------------|

e|--------------------------------------------------------------|
B|---------6---8------6---8------------6---6h8----6--8----------|
G|-----8---------------------8------8--------------------8---5--|
D|--8--------------8-----------8--8------------8----------------|
A|--------------------------------------------------------------|
E|--------------------------------------------------------------|

e|-----------------------------------------------------------|
B|---9--8--8---6----6--------8--6------------------------6---|
G|---------------------7-----------8--8---5-----5--7---8-----|
D|-----------------------8-----------------------------------|
A|-----------------------------------------------------------|
E|-----------------------------------------------------------|

e|-------------------------------------------------------------------|
B|----------6--6b8----6--8------------6--6b8----6--6b8b6p4-----------|
G|-------8-----------------8--------8-----------------------5--------|
D|-----8------------8--------8----8-----------8----------------------|
A|-------------------------------------------------------------------|
E|-------------------------------------------------------------------|
         ~ ~
e|---------------------------------------------------------------|
B|---9---8--8---6------------6-----11---------6---6b8---6b8b6--4-|
G|------------------------\7----7--------------------------------|
D|---------------------------------------------------------------|
A|---------------------------------------------------------------|
E|---------------------------------------------------------------|


e|-----------------|
B|-----------------|
G|---------8-------|
D|---5h6-------1---|
A|-----------------|
E|-----------------|

Eb                          
Well, I can't stop the pain 
Ab
When it calls 
Bb
I'm a man 

e|-----------------|
B|--11-------------|
G|-----7-----------|
D|-----------------|
A|-----------------|
E|-----------------|

Cm
And I can't stop the rain 
Ab
When it falls, my darling 
Bb
Who can? 

e|----------------------|
B|-------6--8b9b8--6----|
G|----7-----------------|
D|--8-----------------8-|
A|----------------------|
E|----------------------|

Eb
My darling girl 
Bb              Eb
My darling girl 
Eb
You're all that matters 
Bb                      Ab
In this wicked world 
Bb
All that matters 

e|----------------|
B|--6-------------|
G|----7-----------|
D|------8---------|
A|----------------|
E|----------------|

Ab
All that matters 

e|----------------|
B|----------6-----|
G|--5--7-8--------|
D|----------------|
A|----------------|
E|----------------|

Eb
My darling friend 
Bb                 Eb
My darling friend 
Eb
All we've got going 
Bb                    Ab
Is love in the end 
Bb
It's all that matters 

e|----------------|
B|--6-------------|
G|----7-----------|
D|------8---------|
A|----------------|
E|----------------|

Eb
All that matters

e|----------------|
B|----------------|
G|---3------------|
D|------5---1-----|
A|----------------|
E|----------------|

Bb
It's all that matters 

e|----------------|
B|--6-------------|
G|----7-----------|
D|------8---------|
A|----------------|
E|----------------|

Eb
All that matters

e|-----------------|
B|-----------------|
G|---------8-------|
D|---5h6-------1---|
A|-----------------|
E|-----------------|

| ~~ shake note
| \ slide up
| / slide down





Comments


Popular Mark Knopfler tabs & chords
Darling Pretty Chords
Done With Bonaparte Chords
Done With Bonaparte 3 Chords
If This Is Goobye Chords
Rollin On 1 Chords
Sailing To Philadelphia Chords
Tall Order Baby Chords
Nobodys Got The Gun Tabs
Romeo And Juliet Intro Tabs
Done With Bonaparte Ukulele


Song lyrics



↑ Back to top | Tablatures and chords are parodies/interpretations of the original songs. You may use it for private study, scholarship, research or language learning purposes only
© 2014 AZChords.com Contact us | Privacy policy | DMCA | Add/correct tabs | Request tabs | Top 50 tabs