>
 >
Johnny W

Johnny W Guitar Tabs

Marius Muller Westernhagen - Johnny W chords, tabs, tablatures, lyrics

Guitar lessons | Add/correct | Request | Top 50 tabs Artists:  A B C D E F G H I J K L M N O P Q R S T U V W X Y Z 0-9

Johnny W Guitar Tabs – Marius Muller Westernhagen

CD, Sheet music, Poster

Do you like Johnny W? Share with your friends now
ChordsTabs

Jonny Walker -Marius Mueller Westerhagen (Taped by Otto Afflerbach)

Hi everybody,

here my interpretation of Jonny Walker. It�s not perfect, but sounds good. 
Any comments or corrections are welcome.

Cheers

Otto A.


Verse:
   G         C            C              C          		     
e|------|-0-------3--|-3-------0--|-1H0----------0--|
B|------|-----1------|-----1------|------1---3------|
G|------|---0-------0|---0-------0|----0-------0----|
D|------|------------|------------|-----------------|
A|---0-2|-3-----3----|-3-----3----|-3------3-------3|
E|-3----|------------|------------|-----------------|
          Jonny......Walker........bist du wieder da 

   G         C            C             C             G
e|------|-0-------3--|-3-------0--|-1H0---------|--------------|
B|------|-----1------|-----1------|------1---3--|-3-------3---3|
G|------|---0-------0|---0-------0|----0-------0|-----0--------|
D|------|------------|------------|-------------|---0-------0--|
A|---0-2|-3-----3----|-3-----3----|-3------3----|--------------|
E|-3----|------------|------------|-------------|-3-----3-----3|
          Jonny......Walker........ich zahl.......bar....

   G         C            C            F            C           C
e|------|-0-------3--|-3-------0--|-1-------1--|-3-------3--|---------|
B|------|-----1------|-----1------|-----1------|-----2------|1--------|
G|------|---0-------0|---0-------0|---2-------2|---0-------0|---------|
D|------|------------|------------|------------|------------|---------|
A|---0-2|-3-----3----|-3-----3----|------------|-3-----3----|3-3-2-0--|
E|-3----|------------|------------|-1-----1----|------------|---------|
          Jonny......Walker........du hast.....  entaeucht.....


                                        |-verse to corus-|-verse to verse-|
      G            F            C         C                C G
e|------------|-1-------1--|------------|----------------|----------------|
B|-2-------2--|-----1------|-1-------1--|-1--------------|-1--------------|
G|-----0------|---2-------2|-----0------|----------------|----------------|
D|---0-------0|------------|---2-------2|----------------|----------------|
A|------------|------------|-3-----3----|-3-3-2-0--------|-3---0-2--------|
E|-3-----3----|-1-----1----|------------|----------------|---3------------|
  Jonny......du bist mein....Freund.....


Corus:
       G            G            F            C        C
e|------------|------------|------------|------------|-------------------|
B|-0-------0--|-0-------0--|-1-------1--|-1-------1--|-1-----------------|
G|-----0------|-----0------|-----2------|-----0------|-------------------|
D|---0-------0|---0-------0|---3-------3|---2-------0|-------------------|
A|------------|------------|------------|-3-----3----|-3-3-2-0-----------|
E|-3-----3----|-3-----3----|-1-----1----|------------|-------------------|
  Ich habs..versucht........ohne dich....aus......

       E            E           Am           Am
e|------------|------------|------------|------------|
B|-0-------0--|-0---1---1--|---------0--|-1---0------|
G|-----1------|------------|-2---2------|---------2--|
D|---2-------2|---2-------2|---2-------2|---2-------2|
A|------------|------------|-0-----0----|-0-----0----|
E|-0-----0----|-0-----0----|------------|------------|
  Wozu auch....du gef�llst...ja


       F            F            C        C
e|------------|------------|------------|------------|
B|-1-------1--|-1-------1--|-1-------1--|-1----------|
G|-----2------|-----2------|-----0------|------------|
D|---3-------3|---3-------3|---2-------2|------------|
A|------------|------------|-3-----3----|-3-3-2-0----|
E|-1-----1----|-1-----1----|------------|------------|
 ...........Kein Mensch.....so gut zu wie du


       G            F           C             
e|------------|------------|------------|------------|
B|-3-------3--|-1-------1--|-1-------1--|-1----------|
G|-----0------|-----2------|-----0------|------------|
D|---0-------0|---3-------3|---2-------2|------------|
A|------------|------------|-3-----3----|-3---0-2----|
E|-3-----3----|-1-----1----|------------|---0--------|
  ..Jonny du...lachst mich...aus


Here the Lyrics

Johnny Walker, jetzt bist du wieder da
Johnny Walker, ich zahl' dich gleich in bar
Johnny Walker, du hast mich nie entt�uscht
Johnny, du bist mein bester Freund

Johnny Walker, immer braungebrannt
Johnny Walker, mit dem R�cken an die Wand
Johnny Walker, komm, gie� dich nochmal ein
Johnny, la� dreizehn gerade sein


Ich hab's versucht, ich komme ohne dich nicht aus
Wozu auch - du gef�llst mir ja
Kein Mensch h�rt mir so gut zu wie du
Und Johnny, du lachst mich auch nie aus

Johnny Walker, ich glaub' nicht an den Quatsch
Johnny Walker, du w�rst 'ne Teufelsfratz
Johnny Walker, von mir aus r�ste mich
Johnny, ich f�hl' mich k�niglich





Comments


Popular Marius Muller Westernhagen tabs & chords
Ein Mann Zwischen Den Zeilen Chords
Engel Chords
Freiheit Chords
Jesus Chords
Johnny W Chords
Komm In Meine Arme Chords
Nur Ein Traum Chords
Taximann Chords
Willenloss Chords
Sexy (Solo) Tabs


Song lyrics



↑ Back to top | Tablatures and chords are parodies/interpretations of the original songs. You may use it for private study, scholarship, research or language learning purposes only
© 2014 AZChords.com Contact us | Privacy policy | DMCA | Add/correct tabs | Request tabs | Top 50 tabs