>
 >
For You I'll Die

For You I'll Die Guitar Tabs

Marion Raven - For You I'll Die chords, tabs, tablatures, lyrics

Guitar lessons | Add/correct | Request | Top 50 tabs Artists:  A B C D E F G H I J K L M N O P Q R S T U V W X Y Z 0-9

For You I'll Die Guitar Tabs – Marion Raven

CD, Sheet music, Poster

Do you like For You I'll Die? Share with your friends now
Tabs
Played in: Standard tuning


***Read first: 	You might know how a different way to hold
		the chords in this tab but if you want it
		to sound perfectly right, you should play
		the chords the way I displayed them.
---------------------------------------------------------------

Intro
e|-------------------------------------------------------|
B|--11--10--6--8--6--------------------------------------|
G|-------------------7--5--3--3--3--0--3--5--------------|
D|-------------------------------------------------------|
A|-------------------------------------------------------|
E|-------------------------------------------------------|

e|-------------------------------------------------------|
B|--11--10--6--8--6--------------------------------------|
G|-------------------7--5--3--3--3--0--3--3--2--7--3--2--|
D|-------------------------------------------------------|
A|-------------------------------------------------------|
E|-------------------------------------------------------|


Verse 1
       Dm     Eb     Bb      F
e|------1------3------1------1------|
B|------3------4------3------1------|
G|------2------3------3------2------|	X2
D|------0------5------3------3------|
A|----------------------------------|
E|----------------------------------|
  "You said I'm yours to keep...
   ...a spot next to your grave"


       Am7     F
e|------0------1------|
B|------1------1------|
G|------0------2------|		X1
D|------2------3------|
A|------0-------------|
E|--------------------|


Chorus
       Gm     Eb      Bb     F
e|------3------3------1------1------|
B|------3------4------3------1------|
G|------3------3------3------2------|
D|------5------5------3------3------|	X4
A|----------------------------------|
E|----------------------------------|
  "And you're a fool to not see...
   ...For you I'll..."

       Gm     Gm
e|---------------------|
B|-------------3-------|	Hit these back
G|-------------3-------|	to back. Listen to
D|------5--------------| X3	the song for the
A|---------------------|	right timing.
E|---------------------|
  "...die"

(some piano part)
e|-------------------------------------------------|
B|--11--10--8--6--8--6-----------------------------|
G|----------------------7--5--3--3--3--0--3--3--2--|
D|-------------------------------------------------|
A|-------------------------------------------------|
E|-------------------------------------------------|


Verse 2
       Dm     Eb     Bb      F
e|------1------3------1------1------|
B|------3------4------3------1------|
G|------2------3------3------2------|	X2
D|------0------5------3------3------|
A|----------------------------------|
E|----------------------------------|
  "Oh this is the end...
   Are things that you'll never say"

       Am7     F
e|------0------1------|
B|------1------1------|
G|------0------2------|		X1
D|------2------3------|
A|------0-------------|
E|--------------------|


Chorus
       Gm     Eb      Bb     F
e|------3------3------1------1------|
B|------3------4------3------1------|
G|------3------3------3------2------|
D|------5------5------3------3------|	X4
A|----------------------------------|
E|----------------------------------|
  "It is strange how time flies...
   ...It's my soul he wants to buy"

               Gm                F     D7
e|--------------3----------------1-----2---|	This shows
B|--------------3----------------1-----1---|	exactly when
G|--------------3----------------2-----2---|	to change the
D|--------------5----------------3-----0---|	chords
A|-----------------------------------------|
E|-----------------------------------------|
  "For you I'll die, For you I'll di....e"


(Some piano part)

e|--10-------10-------10-------------------------------|
B|-----11-------11-------11----------------------------|
G|--------12-------12---------14-------14-------14-----|
D|-------------------------------15-------15-------15--| X4
A|----------------------------------17-------17--------|
E|-----------------------------------------------------|


e|--10-------10-------10------|
B|-----11-------11-------11---|
G|--------12-------12---------|
D|----------------------------| X3	
A|----------------------------|
E|----------------------------|
  "No-oh... no-oh... no-..."

e|----------------------------|
B|----------------------------|
G|--14--------14-------14-----|
D|-----15--------15-------15--| X1
A|---------17-------17--------|
E|----------------------------|
  "oh..."

Chorus
       Gm     Eb      Bb     F
e|------3------3------1------1------|
B|------3------4------3------1------|
G|------3------3------3------2------|
D|------5------5------3------3------|	X5
A|----------------------------------|
E|----------------------------------|
  "And you're a fool to not see...
   It's my soul he wants to buy"

               Gm                F     D7
e|--------------3----------------1-----2---|	This shows
B|--------------3----------------1-----1---|	exactly when
G|--------------3----------------2-----2---|	to change the
D|--------------5----------------3-----0---|	chords
A|-----------------------------------------|
E|-----------------------------------------|
 "For you I'll die, For you I'll di....e"

               Gm                F    D7  Gm
e|--------------3----------------1----2---3--|	This shows
B|--------------3----------------1----1---3--|	exactly when
G|--------------3----------------2----2---3--|	to change the
D|--------------5----------------3----0---5--|	chords
A|-------------------------------------------|
E|-------------------------------------------|
 "For you I'll die, For you I'll di...e...e"


Outro
e|-------------------------------------------------|
B|--------15-10------------------------------------|
G|-----15-----------10-12-10-----------------------|
D|--17-----------12-----------8-10-12-10--3-5-7-8--|	X4
A|-------------------------------------------------|
E|-------------------------------------------------|


-----------------------------------------------------------------
When I was done tabbing this song, I was overwhelmed with
satisfaction. I didn't miss a single part of the song
and I'm sure it's 99% accurate.
-----------------------------------------------------------------





Comments


Popular Marion Raven tabs & chords
Let Me Introduce Myself Chords
Six Feet Under Chords
There I Said It Chords
Break You Tabs
Falling Away Tabs
Heads Will Roll Ukulele
Here I Am Ukulele
Inspite Of Me Ukulele
Let Me Introduce Myself Ukulele
Thank You For Loving Me Ukulele


Song lyrics



↑ Back to top | Tablatures and chords are parodies/interpretations of the original songs. You may use it for private study, scholarship, research or language learning purposes only
© 2014 AZChords.com Contact us | Privacy policy | DMCA | Add/correct tabs | Request tabs | Top 50 tabs