» » »

Marion Raven, Falling Away Tabs (ver.1)

Artists:  A B C D E F G H I J K L M N O P Q R S T U V W X Y Z # 

Falling Away Tabs (ver.1)

Marion Raven Tabs
 Rating:
4/5 (4 votes)
Falling Away lessons Tabs too difficult? Try these video lessons and learn fast
                
it is released)
Played in: Standard tuning




INTRO Part 1 (0:00-0:07)

Guitar 1 (clean)
e|-----------------------------|
B|----5--5--8----12--12--10----|
G|-----------------------------|
D|-----------------------------| }--|
A|-----------------------------|    |
E|-----------------------------|    |
                                    |
Guitar 2 (clean)                    |-- 2X
e|-----------------------------|    |
B|-----------------------------|    |
G|---------5---------7---------|    |
D|----2----5----5----7---------| }--|
A|----2----3----5----5---------|
E|----0---------3--------------|


INTRO part 2 (0:07-0:14)

Guitar 1 (distortion)
e|-----------------------------|
B|-----------------------------|
G|---------5----9----7---------|
D|----2----5----9----7---------| }--|
A|----2----3----7----5---------|    |
E|----0------------------------|    |
                                    |
Guitar 2 (distortion)               |-- 2X
e|-----------------------------|    |
B|-----------------------------|    |
G|---------5---------7---------|    |
D|----2----5----5----7---------| }--|
A|----2----3----5----5---------|
E|----0---------3--------------|


VERSE 1 (0:15-0:30)

Guitar 2 (clean)
e|-----------------------------|
B|-----------------------------|
G|---------5---------7---------|
D|----2----5----5----7---------| }-- 4X 
A|----2----3----5----5---------|
E|----0---------3--------------|
  "He comes to me... hanging on"


PRE CHORUS (0:30-0:43)

Guitar 2 (clean) 
e|-----------------|-------------------|
B|-----------------|-------------------|
G|----2----5----9--|--2----5----7------|
D|----2----5----9--|--2----5----7------|
A|----0----3----7--|--0----3----5------|
E|-----------------|-------------------|
  "Blocking out the pieces... yesterday"


CHORUS (0:44-1:07)

Guitar 1 & 2 (distortion)
e|-----------------------------|
B|-----------------------------|
G|---------5---------7---------|
D|----2----5----5----7---------| }-- 2X
A|----2----3----5----5---------|
E|----0---------3--------------|
  "We're falling away... here"


e|-----------------------------|
B|-----------------------------|
G|---------2----5----7---------|
D|----0----2----3----7---------| }-- 1X
A|----2----0----3----5---------|
E|----3------------------------|
  "All I hear... say"


e|-----------------------------|
B|-----------------------------|
G|---------5---------7---------|
D|----2----5----5----7---------| }-- 2X
A|----2----3----5----5---------|
E|----0---------3--------------|
  "We're falling away..."


CHORUS ENDING (1:08-1:15)

Guitar 1 (clean)
e|-----------------------------|
B|----5--8----12--10-----------|
G|-----------------------------|
D|-----------------------------| }--|
A|-----------------------------|    |
E|-----------------------------|    |
                                    |
Guitar 2 (clean)                    |-- 2X
e|-----------------------------|    |
B|-----------------------------|    |
G|---------5---------7---------|    |
D|----2----5----5----7---------| }--|
A|----2----3----5----5---------|
E|----0---------3--------------|


VERSE 2 (1:15-1:30)

Guitar 1 (clean)
e|-----------------------------|
B|----5--8----12--10-----------|
G|-----------------------------|
D|-----------------------------| }--|
A|-----------------------------|    |
E|-----------------------------|    |
                                    |
Guitar 2 (clean)                    |-- 4X
e|-----------------------------|    |
B|-----------------------------|    |
G|---------5---------7---------|    |
D|----2----5----5----7---------| }--|
A|----2----3----5----5---------|
E|----0---------3--------------|
  "I go to him... anywhere"


PRE CHORUS (1:30-1:44)

Guitar 2 (clean)
e|-----------------|-------------------|
B|-----------------|-------------------|
G|----2----5----9--|--2----5----7------|
D|----2----5----9--|--2----5----7------|
A|----0----3----7--|--0----3----5------|
E|-----------------|-------------------|
  "Understand there's... fade to grey"  


CHORUS (1:45-2:01)

Guitar 1 & 2 (distortion)
e|-----------------------------|
B|-----------------------------|
G|---------5---------7---------|
D|----2----5----5----7---------| }-- 2X
A|----2----3----5----5---------|
E|----0---------3--------------|
  "We're falling away... left here"

e|-----------------------------|
B|-----------------------------|
G|---------2----5----7---------|
D|----0----2----3----7---------| }-- 1X
A|----2----0----3----5---------|
E|----3------------------------|
  "All I hear... we're falling away"


BRIDGE (2:01-2:19)

e|-----------------------------|
B|-----------------------------|
G|---------5~--------7~--------|
D|----2~---5~---5~---7~--------| }-- 2X
A|----2~---3~---5~---5~--------|   [ ~ means let it ring ]
E|----0~--------3~-------------|
  "How can we care... used to be"

e|-----------------------------|
B|-----------------------------|
G|----5~---7~------------------|
D|----5~---7~------------------|
A|----3~---5~------------------|
E|-----------------------------|


VERSE 3 (2:20-2:35)

Guitar 2 (clean)
e|-----------------------------|
B|-----------------------------|
G|---------5---------7---------|
D|----2----5----5----7---------| }-- 2X
A|----2----3----5----5---------|
E|----0---------3--------------|
  "My eyes still blur... meant to be"


CHORUS and the rest is easy... (2:35-3:29)



I'm still in love with you, Marion.
            
Submit corrections

comments powered by Disqus
↑ Back to top | Marion Raven Tabs for Falling Away. Lyrics for acoustic guitar and electric guitar. Tablatures and chords are parodies/interpretations of the original songs. You may use it for private study, scholarship, research or language learning purposes only