» » »

Break You Tabs (ver.1)

Artists:  A B C D E F G H I J K L M N O P Q R S T U V W X Y Z # 

Break You Tabs (ver.1)

Marion Raven
Rating:
5/5 (5 votes)

Hard to play? Try these video lessons and learn fast.
                Played in: Standard tuning


Verse
e|-------------------------------------------|	Slap the strings after
B|-------------------------------------------|	each note.
G|-----------------------------77------------|
D|---------22----1010----55----77------------|		X4
A|---------22----1010----55----55------------|
E|---------00----8-8-----33------------------|
  "I was your girl... You should know by now"

Chorus	(Heavy)
e|---------------------------------------------|
B|---------------------------------------------|
G|-----------------------------------7777------|
D|-------2222----10101010----5555----7777------|	X2
A|-------2222----10101010----5555----5555------|
E|-------0000----8-8-8-8-----3333--------------|
  "Bet you never thought that I could break you...
   ...Did you think that I would look the other way"

e|---------------------------------------------|
B|---------------------------------------------|
G|---------------------------------------------|
D|-------2222----10101010----55555555----------|	X1
A|-------2222----10101010----55553333----------|
E|-------0000----8-8-8-8-----33333333----------|
  "Yeah you had it all figured out"

e|---------------------------------------------|
B|---------------------------------------------|
G|-----------------------------------7777------|
D|-------2222----10101010----5555----7777------|	X1
A|-------2222----10101010----5555----5555------|
E|-------0000----8-8-8-8-----3333--------------|
  "But tell me who's the one who's crying now"


Verse
e|-------------------------------------------|
B|-------------------------------------------|
G|-----------------------------77------------|
D|---------22----1010----55----77------------|		X4
A|---------22----1010----55----55------------|
E|---------00----8-8-----33------------------|
  "The palm of your hand... You should know by now"

(Repeat Chorus)


Bridge
e|-------------------------------------------|
B|-------------------------------------------|
G|-------------------------------------------|
D|-------------------------------------------|	X2
A|---------1010----77----22----2/7-----------|
E|---------8-8-----55----00------------------|
  "On your one night stands... cause you can't hold me..."

e|-------------------------------------------|
B|-------------------------------------------|
G|---------------------------------9999------|
D|--------10101010---7777---2222---9999------|	X1
A|--------10101010---7777---2222---7777------|
E|--------8-8-8-8----5555---0000-------------|
  "...down... Not now..."

e|-------------------------------------------|
B|-------------------------------------------|
G|-------------------------------------------|
D|--------10------12121212-------------------|	X1
A|--------10-X8---12121212-------------------|
E|--------8-------10101010-------------------|
  "I wanna thank you..."
  "I can breathe again and I'm never going back to..."

(Repeat Chorus)

(Instruments will pause briefly, then you continue playing this)
e|-------------------------------------------|
B|-------------------------------------------|
G|---------------------7777------------------|
D|-------------5555----7777------------------|
A|-------------5555----5555------------------|
E|-------------3333--------------------------|

(Repeat chorus)





I was your girl
Gave you my world
My everything
But you wouldn´t see

I had your back
I backed you up
Whatever I did
Was never enough

Just you,you
That's all you ever thought about
You, you
No one matters like you do
What goes around comes around
You should know by now

Bet you never thought that I could break you
Did you think that I would look the other way
Yeah you had it all figured out
But tell me who's the one who's crying now

The palm of your hand
That was your plan
Gave me no time
But now you want mine

It's all about take
You took too much
Nothing inside
I'm all used up

Come on
You, you
Nothing else matters like you do
You know what I'm talkin' 'bout don't you
What goes around comes around
You should know by now

Bet you never thought that I could break you
Did you think that I would look the other way
Yeah you had it all figured out
But tell me who's the one who's crying now

On your one night stands
(should've thought about that)
Says she's just a friend
(should've thought about that)
Are you satisfied now?
(should've thought about that)
Cause you can't hold me down
Not now
I wanna thank you 'cause now I'm free
I can breathe again and I'm never going back to you

Bet you never thought that I could break you
Did you think that I would look the other way?
Yeah you had it all figured out
But tell me who's the one who's crying now
Yeah yeah

Bet you never thought that I could break you
(Bet you never thought that I could break you)
Did you think that I would look the other way
Yeah you had it all figured out
But tell me who's the one who's crying now

-----------------------------------------------------
Here you go. An easy song to play.
            
Hard to play? Try these video lessons and learn fast. | Correct




comments powered by Disqus
↑ Back to top | Tablatures and chords are parodies/interpretations of the original songs. You may use it for private study, scholarship, research or language learning purposes only